» » »

Backfire, The War Starts Here Tabs (ver.1)

Artists:  A B C D E F G H I J K L M N O P Q R S T U V W X Y Z # 

The War Starts Here Tabs (ver.1)

Backfire Tabs
 Rating:
4/5 (4 votes)
The War Starts Here lessons Tabs too difficult? Try these video lessons and learn fast
1
                
Regular tuning: EADGBe

At the beginning I thought that this is going to be really
A tough one, but after all it's not so hard to play.Hope
you all find it correct. Offcourse there might be errors,
but that's the basis of the song. Njoy!


------------------------------------------------------------------------------|
------------------------------------------------------------------------------|
------------------------------------------------------------------------------|
-7---7---7---4---2-3-5--------------------------------------------------------|
-7---7---7---2---2-3-5--------------------------------------------------------|
-5---5---5---2---0-1-3--------------------------------------------------------|
 INTRO

----------------------------|-------------------------------------------------|
----------------------------|-------------------------------------------------|
----------------------------|-------------------------------------------------|
-7-7-7-7--5-7--8-8--8-3-3-3-|-7-7-7-7--5-7--3-3-3-3-3-------------------------|
-7-7-7-7--5-7--8-8--8-3-3-3-|-7-7-7-7--5-7--3-3-3-3-3-------------------------|
-5-5-5-5--3-5--6-6--6-1-1-1-|-5-5-5-5--3-5--1-1-1-1-1-------------------------|
 VERSE1

----------------------------|-------------------------------------------------|
----------------------------|-------------------------------------------------|
----------------------------|-------------------------------------------------|
-7-7-7-7--5-7--8-8--8-3-3-3-|---------2-3-5-----------------------------------|
-7-7-7-7--5-7--8-8--8-3-3-3-|---------2-3-5-----------------------------------|
-5-5-5-5--3-5--6-6--6-1-1-1-|-5p--1p--0-1-3-----------------------------------|
 VERSE2

------------------------------------------|-----------------------------------|
------------------------------------------|-----------------------------------|
----------5-------------------------------|-----------------------------------|
-3-8-8-8--5-7-7-7--7-8--7-8-8-8--3--2-3-5-|-2p--------------------------------|
-3-8-8-8--3-7-7-7--7-8--7-8-8-8--3--2-3-5-|-2p--------------------------------|
-5-6-6-6----5-5-5--5-6--5-6-6-6--1--0-1-3-|-0p--------------------------------|
 CHORUS

---------------------|------------------------------------------|-------------|
---------------------|------------------------------------------|-------------|
-----------------5---|------3-33-------5----------3-33----------|-----5-4--54-|
-2p-222222222222-5-5-|-2-22-3-33-3-33--5-5---2-22-3-33-3-33-7-3-|-2-3-5-4--54-|
-2p-222222222222-3-5-|-2-22-1-11-3-33--3-5---2-22-1-11-3-33-7-3-|-2-3-3-2--32-|
-0p-000000000000---3-|-0-00------1-11----3---0-00------1-11-5-1-|-0-3---------|
    xxxxxxxxxxxx         xx   xx   xx          xx   xx   xx

------------------------------------------|-----------------------------------|
------------------------------------------|-----------------------------------|
----------5-------------------------------|-----------------------------------|
-3-8-8-8--5-7-7-7--7-8--7-8-8-8--3--2-3-5-|-2p--------------------------------|
-3-8-8-8--3-7-7-7--7-8--7-8-8-8--3--2-3-5-|-2p--------------------------------|
-5-6-6-6----5-5-5--5-6--5-6-6-6--1--0-1-3-|-0p--------------------------------|
 CHORUS

----------------------------|-------------------------------------------------|
----------------------------|-------------------------------------------------|
----------------------------|-------------------------------------------------|
-7-7-7-7--5-7--8-8--8-3-3-3-|-7-7-7-7--5-7--3-3-3-3-3-------------------------|
-7-7-7-7--5-7--8-8--8-3-3-3-|-7-7-7-7--5-7--3-3-3-3-3-------------------------|
-5-5-5-5--3-5--6-6--6-1-1-1-|-5-5-5-5--3-5--1-1-1-1-1-------------------------|
 VERSE1

----------------------------|-------------------------------------------------|
----------------------------|-------------------------------------------------|
----------------------------|-----------------------5-------------------------|
-7-7-7-7--5-7--8-8--8-3-3-3-|---------2-3-5---7-7-7-5-7-----------------------|
-7-7-7-7--5-7--8-8--8-3-3-3-|---------2-3-5---7-7-7-3-7-----------------------|
-5-5-5-5--3-5--6-6--6-1-1-1-|-5p--1p--0-1-3---5-5-5---5-----------------------|
 VERSE2
            
Submit corrections

comments powered by Disqus
↑ Back to top | Backfire Tabs for The War Starts Here. Lyrics for acoustic guitar and electric guitar. 1 Tablatures and chords are parodies/interpretations of the original songs. You may use it for private study, scholarship, research or language learning purposes only