» » »

Still Dedicated Bass tabs (ver.1)

Artists:  A B C D E F G H I J K L M N O P Q R S T U V W X Y Z # 

Still Dedicated Bass tabs (ver.1)

Backfire
Rating:
0/5 (0 votes)

Hard to play? Try these video lessons and learn fast.
                
INTRO + MAIN RIFF

G|:---------------------------------------------
D|:---------------------------------------------
A|:---------------------------------------------
E|:---0---0-------------------------------------

G|:----------------------------------------------
D|:---2-2-2-------------------3-2-2-2------------
A|:-----------3-3-3---5-5-5----------------------
E|:----------------------------------------------

SECOND RIFF

G|:-----------------------------------------------
D|:---2-2-2-2-2-----------------------------------
A|:---------------3p5---2/3-3-3---5-5-5-5---3-2---
E|:-----------------------------------------------

Thats all folks...
            
Hard to play? Try these video lessons and learn fast. | Correct




comments powered by Disqus
↑ Back to top | Tablatures and chords are parodies/interpretations of the original songs. You may use it for private study, scholarship, research or language learning purposes only