» » »

Bacilos, Pasos De Gigante Tabs (ver.1)

Artists:  A B C D E F G H I J K L M N O P Q R S T U V W X Y Z # 

Pasos De Gigante Tabs (ver.1)

Bacilos Tabs
Rating:
0/5 (0 votes)
Pasos De Gigante lessons Tabs too difficult? Try these video lessons and learn fast
                
INTRO

E|----------------------------------------------------------|
B|----------------------------------------------------------|
G|-8-------8--------4------4------6-----6-----8-----8-------|
D|---9-------9--------6------6------8-----8-----9-----9-----|
A|-----9-------9--------7------7------9-----9-----9-----9---|
E|----------------------------------------------------------|

E|----------------------------------------------------------|
B|----------------------------------------------------------|
G|--8-------4-----4-----6-----6--------6s8---8-8-6-8v~------|
D|----9-------6-----6-----8-----8---------------------------|
A|------9-------7-----7-----9-----9-------------------------|
E|----------------------------------------------------------|


A
No puedo reir no puedo llorar
D
no puedo dejarte de recordar
E A
no puedo decirte nada que tu no sepas
F#m Bm
tan solo puedo quedarme como un idiota
E
pensando en cosas que me provoca
A
hacer contigo en islas perdidas
A
no puedo gritar no puedo exigir
D
no puedo contarte lo que senti
E A
no puedo decirte nada tu estás tan lejos
F#m Bm
y tu que no sabes nada y lo sabes todo
E
que me derrites de tantos modos
D E - E
dime pa donde vas con mi vidaaaaaa ay dios...

CORO
D-E A-F#m
Carito el corazón me queda grande
D E A
cuando yo pienso en ti yo siento pasos de gigante
D- E F#m
Carito esta canción es importante
D E A
porque cuando la canto yo juro que estas ahi delante (x2)
A
se fue complicando la situación
D
y no hay que olvidarse que al corazón
E A
le puedes decir de todo menos mentiras
F#m
tu ibas para alla yo iba para aca
Bm
y fue tan bonito verte cruzar
E A - A
al menos por un ratito por mi camino

CORO
D-E A-F#m
Carito el corazón me queda grande
D E A
cuando yo pienso en ti yo siento pasos de gigante
D- E F#m
Carito esta canción es importante
D E A
porque cuando la canto yo juro que estas ahi delante (x2)



ahi delante ahi delante .... estás ahi delante (esta parte se 
mantiene la nota A)

\" lalalalalalalalala\" (circulo D-E-F#m)



D - E - F#m
tu ibas para alla yo iba para aca
lalalalalala
y fue tan bonito verte cruzar
lalalalalala
E D (A)- E
al menos por un ratito por mi camino


CORO
D-E A-F#m
Carito el corazón me queda grande
D E A
cuando yo pienso en ti yo siento pasos de gigante
D- E F#m
Carito esta canción es importante
D E A
porque cuando la canto yo juro que estás ahi delante ....
            

comments powered by Disqus
↑ Back to top | Bacilos Tabs for Pasos De Gigante. Lyrics for acoustic guitar and electric guitar. Tablatures and chords are parodies/interpretations of the original songs. You may use it for private study, scholarship, research or language learning purposes only