» » »

Bachman Turner Overdrive, Second Hand Tabs (ver.2)

Artists:  A B C D E F G H I J K L M N O P Q R S T U V W X Y Z # 

Second Hand Tabs (ver.2)

Bachman Turner Overdrive Tabs
Rating:
0/5 (0 votes)
Second Hand lessons Tabs too difficult? Try these video lessons and learn fast
                			    Second hand

Tuning:eadgbe
   main riff
e|--------------------------------------------------------------------------|
B|-----------------------------3--------------------------------------------|
G|--------------4---2----------2--------------------------------------------|
D|--------------4---2----------0--------------------------------------------|
A|--------------2---0-------------------------------------------------------|
E|------0h2--------------0h2------------------------------------------------|
  2nd riff flows on from 1st
e|--------------------------------------------------------------------------|
B|---------------------------2----------------------------------------------|
G|------------4-----2--------3----------------------------------------------|
D|------------4-----2------2-----------------------------2-----2--4--2--4---|
A|------------2-----0----0-------------2--0--2--4--2--4-----4---------------|
E|------0h2----------------------2-0-2--------------------------------------|

e|----------------------------------------------------------------------------|
B|----------------------------------------------------------------------------|
G|--2-------------------------------------------------------------------------|
D|-----4--2--0----------------------------------------------------------------|
A|--------------4--4--0-------------------------------------------------------|
E|-----------------------4--4-------------------------------------------------|
3rd riff is slightly different to the 2nd
e|----------------------------------------------------------------------------|
B|----------------------------------------------2-----------------------------|
G|-------------------------2-----------2-----2-----4--2-----------------------|
D|----------------------2-----4--2--4-----4--------------0--------------------|
A|----------2--0--2--4--------------------------------------4--4--0-----------|
E|-2--0--2-----------------------------------------------------------4--4-----|
thats it play loud with plenty of distortion,easy riffs that sound great



************************************

| /   slide up
| \   slide down
| h   hammer-on
| p   pull-off
| ~   vibrato
| +   harmonic
| x   Mute note
| b   Bend
| pb  Pre-bend
| br  Bend release
| pbr Pre-bend release
| brb Bend release bend

************************************
            

comments powered by Disqus
↑ Back to top | Bachman Turner Overdrive Tabs for Second Hand. Lyrics for acoustic guitar and electric guitar. Tablatures and chords are parodies/interpretations of the original songs. You may use it for private study, scholarship, research or language learning purposes only