» » »

Bachman Turner Overdrive, Hey You Bass tabs (ver.1)

Artists:  A B C D E F G H I J K L M N O P Q R S T U V W X Y Z # 

Hey You Bass tabs (ver.1)

Bachman Turner Overdrive Tabs
 Rating:
4/5 (4 votes)
Hey You lessons Tabs too difficult? Try these video lessons and learn fast
                This song has basically 3 parts:


Intro:

G|-----------------------------------------6----------------------|
D|-----6/7-------4--0-----4--2----4--0--------4----4--0-----4--2--|
A|--0-------4----------2----------------4----------------2--------|
E|----------------------------------------------------------------|

Riff:

G|-------------------------------------------------------------------------------------------|
D|-------------------------------------------------------------------------------------------|
A|----------5------5------------5------5------------5------5------------5--5--4--4--2--2-----|
E|--5----3------------5------3------------5------3------------5------3--------------------0--|


Chorus:

G|---------------------------------------------------|
D|--------------------------------------2--2--2h4p2--|
A|--0--0--0--0--2--2--2--2--5--5--5--5---------------|
E|---------------------------------------------------|

The parts go as follows:

Intro
Riff
Chorus x8
Riff
Chorus x8
Intro
Chorus x4 *This part is played in with a galloping type beat*
Chorus x4 untill fade
            
Submit corrections

comments powered by Disqus
↑ Back to top | Bachman Turner Overdrive Bass for Hey You. Lyrics for acoustic guitar and electric guitar. Tablatures and chords are parodies/interpretations of the original songs. You may use it for private study, scholarship, research or language learning purposes only