>
 >
Air Suite

Air Suite Guitar Tabs

Bach Johann Sebastian - Air Suite chords, tabs, tablatures, lyrics

Guitar lessons | Add/correct | Request | Top 50 tabs Artists:  A B C D E F G H I J K L M N O P Q R S T U V W X Y Z 0-9

Air Suite Guitar Tabs – Bach Johann Sebastian

CD, Sheet music, Poster

Do you like Air Suite? Share with your friends now
Tabs
"Air" suite from xxx        -J S Bach- 
 



*in C Major* 
part A

e --0--------------|--0--------------|--0---5----------|-----------------|
h --1--------------|--1--------------|--1-----6-3---0-1|--0--------------|
g --0--------------|--2--------------|--2---------5----|--0-----2-0------|
d -----------------|-----------------|------3---4------|--0--------------|
A --3---3---2---2--|--0---0----------|-----------------|-----------------|
E -----------------|----------3---3--|--1-----------2--|--3---3---1---1--|


e --3-----------3--|----0---------3-1|--1---------0-1--|--------------1-0|
h --3--------------|----------3-2----|--3---3-1-3-----3|----3-----1-0----|
g ------3-2-3-----3|--2---3-2--------|--2--------------|--0---2-0--------|
d ------2---0---0--|-----------------|--0---0----------|-----------------|
A -----------------|--4---4---0---0--|----------3---3--|--2---2----------|
E --0--------------|-----------------|-----------------|----------3---3--|

                                                                      repete A
e -0-----------2-3|---------0-0------|------------------|-----------------||
h -1--------------|--1---1-3----3-3-1|--0-----01-----0--|-----------------||
g -0--------------|--2---2-----------|--0-2-2----------2|-0---------------||
d ----------------|--2--------4---0--|-----------0---0--|---------0-3-2-0-||
A -3---3---2---2--|--0---------------|------3-----------|---0-2-3---------||
E ----------------|------------------|--3---------------|-3---------------||


part B

e -----------------|--3--------------|------5-----3-1-0-|--1------1^0-----|
h --0------0h1p0-0-|-----------------|------5-----------|--3---------310--|
g --0-----------2-0|----2-3---3-2-3--|--2---------------|--2------------2-|
d --0--------------|------2---0---0--|------------------|--0---0----------|
A -----------------|-----------------|--4---4---0---0---|----------3---3--|
E --3---3---1---1--|--0--------------|------------------|-----------------|


e -----------------|----0-1-------0--|-----------------|------------------|
h ------0-----1-3--|----1-0-------0--|--3-1-0---0-131-0|------------------|
g --1-2------------|--------2-1-2-1--|--------2-2---1--|--2---------------|
d ------0-2-3-2-3-0|--2--------------|--2---0---0---2--|------------------|
A --2---2---0---0--|------0---2------|--0--------------|--0---0-----------|
E -----------------|--4-----------0--|------1----------|----------3---3---|


e ------------0----|--5------------32|--0---3-----------|-----------------|
h --1-----------3-1|--3--------------|----3-----------01|--0--------------|
g ----------0------|------------0-2--|--0-----0-2-------|--0-----2-0------|
d --0--------------|--4---0-2-4------|--------------0---|--0-----------0--|
A -----------------|--5---5---3---3--|--2---2---3-------|----------2-3---2|
E --2---2---0---0--|-----------------|------------------|--3---3---1---1--|


e --------------0--|--------------1-0|--0-----------3-1-|--1--------------|
h --1---------0-1-3|--3---0---0-1-3--|--0---2-0-2-3-2---|--3-2-3----------|
g --0---2-3-2------|--2-----2-0------|------------------|--2-----2---2----|
d ------2---3------|-----------------|------------------|--0---0-------3-0|
A -----------------|-----------------|----------0---0---|----------3---3--|
E --0-----------1--|--2---2---3---3--|--4---4-----------|-----------------|


e ----------------1|--1---0-------1-3|------------0-3-6-|--6---5----------|
h ------------0-3--|----3------------|--1---------------|--5-----------1--|
g --0-----------0--|--0---0---0------|--0-----------0---|-----------------|
d -----------------|-----------------|------------------|--3---3---2---2--|
A --2---2-------2--|--3---3---1---1--|--0---0-----------|-----------------|
E ----------3------|-----------------|----------3-------|-----------------|

                                              |thrill|                repete A+B
e ------1----------|--------0h11p0---|------------------|-----------------||
h --0-3------------|------3---------3|-1p0----0-0^1^0-1-|--1--------------||
g ------2-------2--|--0---0-------2--|----2-2-----------|--0--------------||
d --0---0----------|-----------------|------------------|--2--------------||
A ----------3---3--|--2-------3---0--|------------------|--3--------------||
E -----------------|------3----------|-3----3---3---3---|-----------------||





Comments


Popular Bach Johann Sebastian tabs & chords
Air On A G String Tabs
Aire On A G String Tabs
Aria Tabs
Bvw 997 Prelude Tabs
Bwv 1006a Minuet Tabs
Invenzione Tabs
Minuet In G Tabs
T W T C Prelude Tabs
Terracata (Intro) Tabs
Toccata And Fugue Tabs


Song lyrics



↑ Back to top | Tablatures and chords are parodies/interpretations of the original songs. You may use it for private study, scholarship, research or language learning purposes only
© 2014 AZChords.com Contact us | Privacy policy | DMCA | Add/correct tabs | Request tabs | Top 50 tabs