>
 >
Jesu Joy Of Man's Dreaming 1

Jesu Joy Of Man's Dreaming 1 Guitar Tabs

Bach - Jesu Joy Of Man's Dreaming 1 chords, tabs, tablatures, lyrics

Guitar lessons | Add/correct | Request | Top 50 tabs Artists:  A B C D E F G H I J K L M N O P Q R S T U V W X Y Z 0-9

Jesu Joy Of Man's Dreaming 1 Guitar Tabs – Bach

CD, Sheet music, Poster

Do you like Jesu Joy Of Man's Dreaming 1? Share with your friends now
TabsTabs v2
Here is the Drop-D version.

 Timothy Lipetz

        Jesu, Joy of Man's Desiring in Gmaj    by J.S.Bach


E||-----------------------0-----|-----3--2--3-----------------|
B||--0--------0--3--1--1-----3--|--3-----------3--0--------0--|
G||-----0--2--------------------|--------------------0--2-----|
D||-----------------------------|-----------------------------|
A||-----------------------------|-----------2-----------------|
D||--5--------4--------2--------|--5-----------------5--------|

E|--------0--------------------|-----------------------------|
B|--1--3-----3-----0-----0-----|--------------------1--0-----|
G|--------------5-----------0--|-----0--2--------2--------2--|
D|--2--------0--------7--------|--4--------0--4--------------|
A|-----------------------------|-----------------------------|
D|-----------5--------5--------|--0--------0--------0--------|

E|-----------------------0-----|-----3--2--3-----------------|
B|--0--------0--3--1--1-----3--|--3-----------3--0--------0--|
G|-----0--2--------------------|--------------------0--2-----|
D|-----------------------------|-----------------------------|
A|-----------------------------|-----------2-----------------|
D|--5--------4--------2--------|--5-----------------5--------|

                                 1+++++++++++++++++++++++++++
E|-----------------------------|-----------3-----------------||
B|-----------0-----------------|-----0--3-----3--0-----0-----||
G|-----7--5-----2--0-----0-----|--0-----------------0-----2-:||
D|--------------------0-----4--|-----------------------------||
A|--7--------------------------|-----------------------------||
D|--5--------5--------0--------|--5-----------------5--------||

  2+++++++++++++++++++++++++++
E|-----------3-----------------|
B|-----0--3-----3--0-----0--3--|
G|--0-----------------0--------|
D|-----------------------------|
A|-----------------------------|
D|--5--------------------------|

(refrain:)

E|--7-----------------8-------|-10----------------10--------|
B|--8----------------10-------|-12----------------12--------|
G|--0--0--------0-----0--0----|--0--0--------0-----0--0-----|
D|--------0--------0--------0-|--------0--------0--------0--|
A|----------------------------|-----------------------------|
D|-----------5----------------|-----------5-----------------|

E|--8-----------------7-------|--5--------------5---8--7--5--|
B|-10-----------------8-------|-----7--------7---------------|
G|--0--0--------0-----0--0----|--------7--7------------------|
D|--------0--------0--------0-|------------------------------|
A|----------------------------|------------------------------|
D|-----------5----------------|--0--------0---------0--------|

E|--7-----------------8-------|-10-----------------7--------|
B|--8----------------10-------|-12-----------------8--------|
G|--0--0--------0-----0--0----|--0--0--------0-----0--0-----|
D|--------0--------0--------0-|--------0--------0--------0--|
A|----------------------------|-----------------------------|
D|-----------5----------------|-----------5-----------------|

E|--5-----7/8---7--------5--------|--3--------------------------||
B|--7-----------------------------|-----------------------0-----||
G|-----7-----------7--------7-----|-----0--------0-----------2--||
D|--------------------7--------7--|--------0--------0----------:||
A|--------------------------------|-----------------------------||
D|--0-----------0--------0--------|--5--------5--------5--------||

(repeat ALL the way back to the beginning, then:)

E||-----------------------0-----|-----3--2--3-----------------|
B||--0--------0--3--1--1-----3--|--3-----------3--0--------0--|
G||-----0--2--------------------|--------------------0--2-----|
D||-----------------------------|-----------------------------|
A||-----------------------------|-----------2-----------------|
D||--5--------4--------2--------|--5-----------------5--------|

E|--------0--------------------|-----------------------------|
B|--1--3-----3-----0-----0-----|--------------------1--0-----|
G|--------------5-----------0--|-----0--2--------2--------2--|
D|--2--------0--------7--------|--4--------0--4--------------|
A|-----------------------------|-----------------------------|
D|-----------5--------5--------|--0--------0--------0--------|

E|-----------------------0-----|-----3--2--3-----------------|
B|--0--------0--3--1--1-----3--|--3-----------3--0--------0--|
G|-----0--2--------------------|--------------------0--2-----|
D|-----------------------------|-----------------------------|
A|-----------------------------|-----------2-----------------|
D|--5--------4--------2--------|--5-----------------5--------|

                                 1+++++++++++++++++++++++++++
E|-----------------------------|-----------3-----------------||
B|-----------0-----------------|-----0--3-----3--0-----0-----||
G|-----7--5-----2--0-----0-----|--0-----------------0-----2-:||
D|--------------------0-----4--|-----------------------------||
A|--7--------------------------|-----------------------------||
D|--5--------5--------0--------|--5-----------------5--------||



  2+++++++++++++++++++++++++++
E|-----------3-----------------|
B|-----0--3-----3--0-----0--3--|
G|--0-----------------0--------|
D|-----------------------------|
A|-----------------------------|
D|--5-----------------5--------|

E|--1-----------------0--------|-----------------------------|
B|-----3--0--------1-----1-----|--------------------1--0-----|
G|-----------0--2-----------2--|-----0--2--------2--------2--|
D|-----------------------------|--4--------0--4--------------|
A|-----------------------------|-----------------------------|
D|-----------5-----------------|--0--------0--------0--------|
    ^
    this measure sounds odd to me, but I left it as original (tjl)

E|-----------------------0-----|-----3--2--3-----------------|
B|--0--------0--3--1--1-----3--|--3-----------3--0--------0--|
G|-----0--2--------------------|--------------------0--2-----|
D|-----------------------------|-----------------------------|
A|-----------------------------|-----------2-----------------|
D|--5--------4--------2--------|--5-----------------5--------|
                                  _
                                          /.
E|-----------------------------|-----------3----------------||
B|-----------0-----------------|-----0--3--0----------------||
G|-----7--5-----2--0-----0-----|--0--------0----------------||
D|--------------------0-----4--|-----------0----------------||
A|--7--------------------------|----------------------------||
D|--5--------5--------0--------|--5--------5----------------||
          ^
          this a C# in original, I think C sounds better. (tjl)

Thanks to Timothy Lipetz for the tab.

             Jesu, Joy Of Man's Desiring by J.S. Bach
      	    

       The piece is in 3/4 time, but it feels more like a 3/8 time.
Almost the entire thing is in triplets like the diagram below.  All of
the notes within each triplet are two spaces apart, and there are four
spaces between triplets, and three triplets per bar.

     _____      _____      _____       _____      _____      _____
    |  |  |    |  |  |    |  |  |     |  |  |    |  |  |    |  |  |
e|--|--|--|----|--|--|----|--0--|--|--|--3--2----3--|--|----|--|--|--|
B|--|--|--|----0--3--1----1-----3--|--3----------0--3--0----|--|--0--|
G|--|--0--2----0----------0--------|--0---------------------0--2-----|
D|--|----------0----------2--------|-------------2----------2--------|
A|--|------------------------------|--2------------------------------|
E|--3------------------------------|---------------------------------|

	   In the few places where the notes are not in groups of three
(example below), each single group of notes has the same time value as
one of the above triplets.

e|---------------------|---------------------|---------------------|
B|--0---------------1--|--3---------------3--|--1---------------0--|
G|--0------------------|------------------0--|------------------0--|
D|----------4-------2--|--4-------2----------|--2-------4----------|
A|---------------------|---------------------|---------------------|
E|---------------------|---------------------|---------------------|


Please ignore the dots.  They're the only way I could fool the Bluewave
reader into spacing everything properly.


.    .    .      *** JESU, JOY OF MAN'S DESIRING ***
.    .    .    .    .    .   J.S. BACH

Andante (3/4 time)

e|---------------------------0-----|-----3--2----3-------------------|
B|-------------0--3--1----1-----3--|--3----------0--3--0----------0--|
G|-----0--2----0----------0--------|--0---------------------0--2-----|
D|-------------0----------2--------|-------------2----------2--------|
A|---------------------------------|--2------------------------------|
E|--3------------------------------|---------------------------------|



e|--------0------------------------|---------------------------------|
B|--1--3-------3--1--0-------0-----|------------------------1--0-----|
G|-------------0----------2-----0--|-----0--2----------2----------2--|
D|---------------------------------|--4----------0--4-------0--------|
A|--0----------2----------3--------|---------------------------------|
E|---------------------------------|---------------------------------|



e|---------------------------0-----|-----3--2----3-------------------|
B|--0----------0--3--1----1-----3--|--3----------0--3--0----------0--|
G|-----0--2----0----------0--------|--0---------------------0--2-----|
D|------------------------2--------|-------------2----------0--------|
A|---------------------------------|--2------------------------------|
E|--3----------0-------------------|---------------------------------|

.    .    .    .    .    .    .   Barre III
.    .    .    .    .    .    .    .  |
e|---------------------------------|--|----------3-------------------|
B|-----3--1----0-------------------|--------3-------3----------------|
G|-------------0--2--0-------0-----|-----4-------------4-------4--2--|
D|--2---------------------------4--|--5---------------------5--------|
A|--3----------4----------5--------|-------------5----------2--------|
E|---------------------------------|--3------------------------------|

 Back to 1st
    |
e|--|------------------|---------------------|---------------------|
B|--0---------------1--|--3---------------3--|--1---------------0--|
G|--0------------------|------------------0--|------------------0--|
D|----------4-------2--|--4-------2----------|--2-------4----------|
A|---------------------|---------------------|---------------------|
E|---------------------|---------------------|---------------------|



e|---------------------------------|---------------------------------|
B|---------------------------1--0--|--1---------------------1--0-----|
G|--2-------------2--0----2--------|-----2-------------2----------2--|
D|--4--0--2----4-------------------|--0-----4----0--4-------0--------|
A|---------------------------------|---------------------------------|
E|---------------------------------|---------------------------------|



e|---------------------------0-----|-----3--2----3-------------------|
B|--0----------0--3--1----1-----3--|--3----------0--3--0----------0--|
G|-----0--2----0----------0--------|--0---------------------0--2-----|
D|-------------4----------2--------|-------------2----------2--------|
A|---------------------------------|--2------------------------------|
E|--3------------------------------|---------------------------------|



e|---------------------------------|---------------------------------|
B|-----3--1----0-------------------|-----3--1----0-------------------|
G|----------------2--0-------0-----|----------------2--0-------0-----|
D|--2----------0-------------------|--2----------0----------0-----4--|
A|--3---------------------5-----4--|--3------------------------------|
E|---------------------------------|---------------------------------|



e|---------------------------0-----|-----3--2----3-------------------|
B|-----0-------0--3--1----1-----3--|--3----------0--3--0----------0--|
G|--0-----2----0----------0--------|--0---------------------0--2-----|
D|-------------0----------2--------|-------------2-------------------|
A|---------------------------------|--2------------------------------|
E|--3------------------------------|------------------------0--------|



e|--------0------------------------|---------------------------------|
B|--1--3-------3--1--0-------0-----|------------------------1--0-----|
G|------------------------2-----0--|-----0--2----------2----------2--|
D|---------------------------------|--4----------0--4-------0--------|
A|--0----------2----------3--------|---------------------------------|
E|---------------------------------|---------------------------------|



e|---------------------------0-----|-----3--2----3-------------------|
B|--0----------0--3--1----1-----3--|--3----------0--3--0----------0--|
G|-----0--2----0----------0--------|--0---------------------0--2-----|
D|------------------------2--------|-------------2----------0--------|
A|---------------------------------|--2------------------------------|
E|--3----------0-------------------|---------------------------------|



e|---------------------------------|-------------3-------------------|
B|-----3--1----0-------------------|-----0--3-------3--0-------0--2--|
G|-------------0--2--0-------0-----|--0---------------------0-----0--|
D|--2---------------------0-----4--|---------------------------------|
A|--3----------4-------------------|------------------------------0--|
E|---------------------------------|--3------------------------------|
.    .    .    .    .    .    .    .    .    run down
.    .    .    .    .    .    .    .    .    . chord
.    .    .    .    .    .    .    .    .    .   |
e|---------------------------------|-------------|-------------------|
B|--3------------------------0-----|-----1--0----1-------------------|
G|----------------2--1----1-----2--|--2----------2--2----------------|
D|--4--0--2----4-------------0-----|-----2--0----2-----2-------0--2--|
A|--0----------3----------2-----3--|--3----------0----------3--------|
E|---------------------------------|---------------------------------|
.    .    . run down
.    .    .  chord
.    .    .    |
e|-------------|-------------------|----------------0----------1--0--|
B|-----3--1----3--0----------------|-----1--0----1-----3----3--------|
G|-------------1-----1----------1--|--2----------2----------2--------|
D|--3---------------------2--4-----|-------------3----------3--------|
A|-------------2-------------------|--0------------------------------|
E|---------------------------------|---------------------------------|



e|--0--5--4----5--0----------------|--1--0---------------------------|
B|-------------5-----1-------0--1--|--3-----3----1--0----------------|
G|--2---------------------2--------|--2----------2-----2-------2--1--|
D|-------------3----------2--------|--0----------1----------2--------|
A|--3------------------------------|---------------------------------|
E|---------------------------------|---------------------------------|

.    .    .    .    .    .    .    .    .    .   Barre V
.    .    .    .    .    .    .    .    .    .    . |
e|--------0------5------3--|-------------0--3-------|--6--5--|
B|-----1---------5------3--|-----1--3----1-----6----8--------|
G|--2------------6---------|--0----------2----------5--------|
D|-------------------------|--2---------------------5--------|
A|--0-------------------2--|--3---------------------5--------|
E|-------------------------|---------------------------------|

.    .    .    .     Back to 1st
.    .    .    .    .     |
e|--5--8--7----8--5-------|--0--1--|--0--3--1----3--0----------------|
B|--6----------------6----3--------|--1----------------3-------------|
G|--5---------------------0--------|--0---------------------0--2--4--|
D|---------------------------------|-------------2-------------------|
A|-------------5-------------------|--3---------------------3--------|
E|---------------------------------|---------------------------------|



e|---------------------------------|---------------------------------|
B|-----1--0----1-------------------|---------------------------0-----|
G|--2-------------2----------------|----------------0-------0-----2--|
D|--3----------0-----1----0--2--1--|--2-----0----2-----4-------------|
A|---------------------------------|-----3-------------0-------------|
E|------------------------3--------|------------------------3--------|



e|---------------------------0-----|-----3--2----3-------------------|
B|--0----------0--3--1----1-----3--|--3----------0--3--0----------0--|
G|-----0--2----0----------0--------|--0---------------------0--3-----|
D|-------------0----------2--------|-------------2-------------------|
A|---------------------------------|--2------------------------------|
E|--3------------------------------|------------------------0--------|



e|--------0------------------------|---------------------------------|
B|--1--3-------3--1--0-------0-----|---------------------------1--0--|
G|-------------0----------2-----0--|----------------2--0----2--------|
D|---------------------------------|--4--0--2----4----------0--------|
A|--0----------2----------3--------|---------------------------------|
E|---------------------------------|---------------------------------|



e|---------------------------------|---------------------------0-----|
B|--1---------------------1--0-----|--0----------0--3--1----1-----3--|
G|-----2-------------2----------2--|-----0--2----0----------0--------|
D|--0-----4----0--4-------0--------|-------------4----------2--------|
A|---------------------------------|---------------------------------|
E|---------------------------------|--3------------------------------|



e|-----3--2----3-------------------|---------------------------------|
B|--3----------0--3--0----------0--|-----3--1----0-------------------|
G|--0---------------------0--2-----|-------------0--2--0-------0-----|
D|-------------2----------2--------|--2----------0----------0-----4--|
A|--2------------------------------|--3------------------------------|
E|---------------------------------|---------------------------------|



e|-------------3-------------------|--1---------------------0--------|
B|-----0--3-------3--0-------0--3--|-----3--0-------0--3-------1-----|
G|--0---------------------0--------|-------------0----------------2--|
D|---------------------------------|---------------------------------|
A|---------------------------------|---------------------------------|
E|--3---------------------3--------|--3---------------------3--------|



e|---------------------------------|---------------------------------|
B|--------1----3--0-------------0--|--1---------------------1--0-----|
G|-----2-------------0-------0-----|-----2-------------2----------2--|
D|--4---------------------2--------|--------4----0--4----------------|
A|---------------------------------|---------------------------------|
E|--3----------3----------3--------|--3---------------------3--------|



e|---------------------------0-----|-----3--2----3-------------------|
B|--0----------0--3--1----1-----3--|--3----------0--3--0----------0--|
G|-----0--2----0----------0--------|--0---------------------0--2-----|
D|-------------0----------2--------|-------------2----------2--------|
A|---------------------------------|--2------------------------------|
E|--3------------------------------|---------------------------------|



e|--------0------------------------|---------------------------------|
B|--1--3-------3--1--0-------0-----|------------------------1--0-----|
G|-------------0----------2-----0--|-----0--2----------2----------2--|
D|---------------------------------|--4----------0--4----------------|
A|--0----------2----------3--------|---------------------------------|
E|---------------------------------|---------------------------------|



e|---------------------------0-----|-----3--2----3-------------------|
B|--0----------0--3--1----1-----3--|--3----------0--3--0----------0--|
G|-----0--2----0----------0--------|--2---------------------0--2-----|
D|------------------------2--------|-------------2----------0--------|
A|---------------------------------|--2------------------------------|
E|--3----------0-------------------|---------------------------------|
.    .    .    .    .    .    .    run down
.    .    .    .    .    .    .     chord
.    .    .    .    .    .    .    .  |
e|---------------------------------|--|-----------------------------||
B|-----3--1----0-------------------|--------------------------------||
G|-------------0--2--0-------0-----|--0-----------------------------||
D|--2---------------------0-----4--|--0-----------------------------||
A|--3----------4----------------3--|--2-----------------------------||
E|---------------------------------|--3-----------------------------||





Comments


Popular Bach tabs & chords
Minuet In G Minor Bass Tabs
Prelude #1 In C Major Bass Tabs
Jesu Joy Of Man's Dreaming Tabs
Well Tempered Clavier Tabs


Song lyrics



↑ Back to top | Tablatures and chords are parodies/interpretations of the original songs. You may use it for private study, scholarship, research or language learning purposes only
© 2014 AZChords.com Contact us | Privacy policy | DMCA | Add/correct tabs | Request tabs | Top 50 tabs