» » »

Jesu Joy Of Man's Dreaming Tabs (ver.1)

Artists:  A B C D E F G H I J K L M N O P Q R S T U V W X Y Z # 

Jesu Joy Of Man's Dreaming Tabs (ver.1)

Bach
Rating:
0/5 (0 votes)

Tabs too difficult? Try these video lessons and learn fast.
                ---------------------------0----------3--2----3-------------------
-------------0--3--1----1-----3----3-------------3--0----------0--
-----0--2----0-------------------------------------------0--2-----
------------------------2---------------------2-------------------
-----------------------------------2------------------------------
--3------------------------------------------------------0--------

--------0---------------------------------------------------------
--1--3-------3--1--0-------0-----------------------------1--0-----
------------------------2-----0-------0--2----------2----------2--
-----------------------------------4----------0--4-------0--------
--0----------2----------3----------5------------------------------
----------------------------------------------2-------------------


---------------------------0----------3--2----3-------------------
--0----------0--3--1----1-----3----3-------------3--0----------0--
-----0--2------------------------------------------------0--2-----
-------------2--------------------------------2----------0--------
------------------------3----------2------------------------------
--3---------------------------------------------------------------

---------------------------------------------3--------------------||
-----3--1----0---------------------------3-------3-------------3--||
----------------2--0-------0----------4-------------4-------4-----||
--2---------------------0-----4----5---------------------5--------||
--3----------4----------------------------------------------------||
-----------------------------------3---------------------3--------||
    
--0---------------1----3---------------3----1---------------0--
--0---------------0----2---------------2----0---------------0--
--0---------------2----0---------------0----2---------------0--
--3-------2-------0----2-------0-------2----0-------2-------3--

---------------------------1--0----1---------------------1--0-----
--2-------------2--0----2-------------2-------------2----------2--
-----0--2----4----------0----------0-----4----0--4-------0--------
--2---------------------------------------------------------------

-----------------------------------------------
--0----------1------3------0------0--1--0------
--0----------0------0------0----2----------2---
--0----------2------0------2------------0--0---
--------------------2---2-------3--------------
--3-----2----0---------------------------------

---------------------------0----------3--2----3-------------------
-----0-------0--3--1----1-----3----3-------------3--0----------0--
--0-----2----0-------------------------------------------0--2-----
------------------------2---------------------2-------------------
-----------------------------------2------------------------------
--3------------------------------------------------------0--------

--------0---------------------------------------------------------
--1--3-------3--1--0-------0-----------------------------1--0-----
------------------------2-----0-------0--2----------2----------2--
-----------------------------------4----------0--4-------0--------
--0----------2----------3----------5------------------------------

---------------------------0----------3--2----3-------------------
--0----------0--3--1----1-----3----3-------------3--0----------0--
-----0--2--------------------------0---------------------0--2-----
-------------2--------------------------------2----------0--------
------------------------3----------2------------------------------
--3---------------------------------------------------------------

---------------------------------------------3----------------
-----3--1----0---------------------------3------3-----------3-
----------------2--0-------0-------0--4------------4-----4----
--2----------0----------0-----4-----------------------5-------
--3-----------------------------------------------------------
-----------------------------------3--------------------------

--------------------0--------------------------------
--6--3-----------3-----1-----------1--3--0-----------
--------4-----4-----------2-----2-----------0-----0--
-----------5-----------------4-----------------2-----
-----------------------------------------------------
--3--------------------------------------------------

-0----------------------1--3---0----------0--1-----3-----------1--0----
----1----------------2------------0----0--------2-----------2--------2-
-------2--4---0--4------------------2--------------4--0--4-------------

---------------------------0----------3--2----3-------------------
--0----------0--3--1----1-----3----3-------------3--0----------0--
-----0--2----0-------------------------------------------0--2-----
------------------------2---------------------2-------------------
-----------------------------------2------------------------------
--3------------------------------------------------------0--------

--------0---------------------------------------------------------
--1--3-------3--1--0-------0-----------------------------1--0-----
------------------------2-----0-------0--2----------2----------2--
-----------------------------------4----------0--4-------0--------
--0----------2----------3----------5------------------------------
----------------------------------------------2-------------------


---------------------------0----------3--2----3-------------------
--0----------0--3--1----1-----3----3-------------3--0----------0--
-----0--2------------------------------------------------0--2-----
-------------2--------------------------------2----------0--------
------------------------3----------2------------------------------
--3---------------------------------------------------------------

-------------------------------------
-----3--1----0-----------------------
----------------2--0------0-------0--
--2--------------------------4----0--
--3----------4----------5---------2--
----------------------------------3--

***** `&' *********************************************
**     #                                             **
**     #     Any corrections, questions, comments,   **
**    _#_    etc. welcome!                           **
**   ( # )                                           **
**** `---' ********************************************
            
Tabs too difficult? Try these video lessons and learn fast.




comments powered by Disqus
↑ Back to top | Tablatures and chords are parodies/interpretations of the original songs. You may use it for private study, scholarship, research or language learning purposes only