» » »

What Katy Did Next Tabs (ver.1)

Artists:  A B C D E F G H I J K L M N O P Q R S T U V W X Y Z # 

What Katy Did Next Tabs (ver.1)

Babyshambles
Rating:
0/5 (0 votes)

Hard to play? Try these video lessons and learn fast.
                Babyshambles - What Katy Did Next
Album - Down In Albion

   ^         ^   ^      ^       ^   ^    ^     ^ v  ^   ^
e|-15------------14-----0-----------------------------------|
B|-0---------15---------0-----------8------------10-----10--|
G|----------------------12\11---9---9----10---------10--10--|
D|----------------------------------10---10---------10--10--|
A|---------------------------------------8-----8----8---8---|
E|----------------------------------------------------------|


  *P1*
   v
               Theres a..
   ^    ^  v    ^  ^  ^  ^     v  ^  v  ^   ^  v    ^
e|-----------------------8-----8--8---------10-10-----------|
B|-----------------------8-----8--8---------10-10-----------|
G|------14-14---14-0-----9-----9--9--0------10-10-----------|
D|------13-13---13-0-----10----10-10--------10-10-----------|
A|------15-15---15-------10----10-10--------x--x----12\-----|
E|-13---13-13---------8--8-----8--8-----10--10-10-----------|


                      You will get burned..   Hey!
   ^  ^ v ^ ^ v ^      ^              ^        ^
e|----6-6---5-5-5---------------------------------------|
B|----6-6---5-5-6---------------------1-----------------|
G|----7-7---5-5-7------4--------------3--------0--------|
D|----8-8-7-7-7-7------5--------------2-----------------|
A|----8-8---7-7-5------5--------------3-----------------|
E|-6--6-6---5-5-x------3--------------x-----------------|


                      Hell have no...          Like a woman...
   ^    v     ^ ^  ^  ^  v ^   ^ ^ v  v ^   ^  ^ v   v ^ v ^
e|-1----1~----1------------------5-5-----------6-6---5-5-5-5--|
B|-1----1~----1-------5--x-5---x-6-6--x--------6-6---5-5-5-6--|
G|-2----2~----2-0-----5--x-5---x-5-5--x-0~-----7-7---5-5-5-7--|
D|-3----3~----3-0-----5--x-5---x-7-7--x-0~-----8-8---7-7-7-7--|
A|-3----3~----3----3--3--x-3---x-5-5--x--------8-8---7-7-7-5--|
E|-1----1~----1-----------------------------6--6-6---5-5-5-x--|


  I'll tell you my story...          wish you'd never, never
   ^                                   ^
e|-------------------------------------0-------------|
B|-0-----------------------------------1-------------|
G|-0-----------------------------------3-------------|
D|-0-----------------------------------2-------------|
A|-x-----------------------------------3-------------|
E|-3-----------------------------------x-------------|


  wish you never been born no
                      ^ v  ^
e|--------------------x-----------------------------|
B|--------------------x-8--8------------------------|
G|--------------------x-9--9------------------------|
D|--------------------x-8--8------------------------|
A|--------------------x-10-10-----------------------|
E|--------------------x-8--8------------------------|


    I may never learn     you never know
   ^  ^  v             ^                    ^  V   ^
e|------------------------------------------8--8---8---|
B|----9--9-------------9--------------------8--8---8---|
G|----10-10------------10-------------------8--8---8---|
D|----10-10------------10-------------------10-10--10--|
A|-8--8--8-------------8-----------------------10--10--|
E|---------------------------------------------8---8---|


                      I may live an learn..
   ^  v   v  ^    ^                           ^
e|-8--8---8--8----------------------------------------|
B|-8--8---8--8----9-----------------------------------|
G|-8--8---8--8----10----------------------------------|
D|-10-10--10-10---10--------------------------10------|
A|-10-10-----10---8---------------------------10------|
E|-8--8------8--------------------------------8-------|


                 I may crash an burn...
   ^   ^   ^  ^                          ^      ^   ^
e|------------6--------------------------8------8---6--|
B|------------6--------------------------8------8---6--|
G|------------6--------------------------8------8---6--|
D|-10--10--9--8--------------------------10-----10--8--|
A|-10--10--9--8--------------------------10-----10--8--|
E|-8---8---7--6--------------------------8------8---6--|

                                            *Point A*
                                                V
   I may take my turn..                         If you
                   ^       ^ v ^ v ^ v ^ v      ^   ^
e|-----------------5-------5----------------|---2---0--|
B|-----------------5-------5-5-5-5-5-5-5-5--|---3---2--|
G|-----------------6-------6-6-6-6-6-6-6-6--|---2---2--|
D|-----------------7-------7-7-7-7-7-7-7-7--|---0---2--|
A|-----------------7-------7-7-7-7-7-7-7-7--|-------0--|
E|-----------------5-------5-5-5-5-5-5-5-5--|----------|


                                    *Point B*
                                       V
  love her then tell her you love her and      You
                  ^            ^   v   ^     ^
e|-------------------------------------------2-----|
B|----------------3--------------------------3-----|
G|----------------4------------2---4---2-----2-----|
D|-------------------------------------------0-----|
A|-------------------------------------------------|
E|-------------------------------------------------|

   could be kissing her soon
              ^           ^    ^   v   ^
e|------------------------------------------|
B|------------2-----------3----2---3---2----|
G|------------2-----------4----2---4---2----|
D|------------2-----------4-----------------|
A|------------0-----------2-----------------|
E|------------------------------------------|
Go to *Point A* and play until *Point B* then continue with this next part


  If you need her...
   ^   ^      ^  v  v ^  ^   ^    ^    ^    ^    ^
e|-2-------------2--x-2--3---3/15-15---14---10------|
B|-3---2------3--2--x-2--3---0----0----0----11---8--|
G|-2---2------4--2--x-2--0---0--------------0----9--|
D|-0---2------4----------0-----------------------10-|
A|-----0------2----------2--------------------------|
E|-----------------------3--------------------------|
  Go to *P1* at start of tab. Play through again, doing the *Point A* and *Point B* 
again, when at *Point B* continue

with this:

   ^   ^   ^ ^  ^    v  ^
e|-2-----------------------|
B|-3---2---3----2----3--2--|
G|-2---2---4-4--2----4--2--|
D|-0---2---4---------------|
A|-----0---2---------------|
E|-------------------------|

             !!Solo an outro:

e|-14-14-14----14---------------------------------------------14-14--|
B|-15-15-15-14-14----14----15-15-15-14---15--14---15-15-15-15-14-14--|
G|----------------14-16-14-16-16-16-14---16--14---14-14-14-14--------|
D|-------------------------------------------------------------------|
A|-------------------------------------------------------------------|
E|-------------------------------------------------------------------|

e|-14-14-------------------------------------14--14----------------------|
B|-14-14--15-15-15-14---15--14---15-15-15-15-14--14--15--15-14---15--14--|
G|-14-14--16-16-16-14---16--14---14-14-14-14-----14--16--16-14---16--14--|
D|-----------------------------------------------------------------------|
A|-----------------------------------------------------------------------|
E|-----------------------------------------------------------------------|

e|-14--------------14-------15------14-----3-----3--2-------------10-----|
B|-15---14----15---14---15------15------15\3--3--------3//11---------8---|
G|-14---14----16---14-----------------------------------------12-----9---|
D|-------------------------------------------------------------------10--|
A|-----------------------------------------------------------------------|
E|-----------------------------------------------------------------------|

e|--------------------------------------------0--0------|
B|-----------------------------------10-10-10-10-10-10--|
G|-----------10-10-10-10-10-10-10-10-10-10-10-10-10-10--|
D|-----10-10-10-10-10-10-10-10-10-10-10-10-10-10-10-10--|
A|-8---8--8--8--8--8--8--8--8--8--8--8--8--8--8--8--8---|
E|------------------------------------------------------|


Legend:

^ = Downstroke
v = Upstroke
X = Deadnote
H = Hammer on
P = Pull off
/ = Slide up fretboard
\ = Slide down fretboard
// = slide slowly up fretboard
\\ = slide slowly down fretboard
            
Hard to play? Try these video lessons and learn fast. | Correct




comments powered by Disqus
↑ Back to top | Tablatures and chords are parodies/interpretations of the original songs. You may use it for private study, scholarship, research or language learning purposes only