» » »

Babyshambles, Un Stookie Titled Tabs (ver.1)

Artists:  A B C D E F G H I J K L M N O P Q R S T U V W X Y Z # 

Un Stookie Titled Tabs (ver.1)

Babyshambles Tabs
 Rating:
4/5 (4 votes)
Un Stookie Titled lessons Tabs too difficult? Try these video lessons and learn fast
                -------------------------------------------------------------------------------
                             Unstookietitled - Babyshambles
-------------------------------------------------------------------------------

Tuning: EADGBe (standard tuning)

As always, listen to the song to get the timings perfect.

Intro (hitting the D string is optional):

e|-------------------------------------------------------------------|
B|-------------------------------------------------------------------|
G|--7-7777-6-7-11-14-14-14-11-11-16-16-16-16-11-11-11-14-14-14-11-11-| REPEAT
D|--0-0000-0-0-0--0--0--0--0--0--0--0--0--0--0--0--0--0--0--0--0--0--|   X2
A|-------------------------------------------------------------------|
E|-------------------------------------------------------------------|

then:

e|---------------------------------------------------------------------|
B|---------------------------------------------------------------------|
G|--12-12-12-12--11-11-11-12-12-12-12--11-11-11-12-12-12-12-11-11-11-7-|
D|--0--0--0--0---0--0--0--0--0--0--0---0--0--0--0--0--0--0--0--0--0--0-|
A|---------------------------------------------------------------------|
E|---------------------------------------------------------------------|

Verse:

               Bm             A           D
You smoke your cigarettes all down to the bone,
    Bm     D
You bow to vac it,
    A      D
You vow to back it,
       G              A           D
Oh you vow to back it all the way home.

(REPEAT)

Chorus (or whatever you wish to call it):

    D        A
She calls my name,
D        A
Calls my name,
    D        A
She calls my name,
   E
Oh yeah.

(REPEAT)

(BACK TO VERSE, THEN CHORUS)

Bridge:

(E)
Back when I am truly single...

then:

e|----2--2-1-0--0-9--9--9--9--9--7-|
B|----3--2-1-0--0-10-10-10-10-10-8-|
G|----4--3-2-0--0-9--9--9--9--9--7-| REPEAT X 3
D|----4--4-3-2--2-0--0--0--0--0--0-|
A|-2--2--4-3-2--2------------------|
E|----x--2-1-0--0------------------|


Solo:

Sorry I haven't worked this out yet, but here are the chords it is based around:

D      C     Bm


(REPEAT)

(BACK TO INTRO RIFFS)


Outro:

Pete plays around up between the 10th and 15th frets (or thereabouts) on the highest few 
then this variation on the intro riff kicks in (after a few strums on the first note of it):


e|-------------------------------------------|
B|-------------------------------------------|
G|--7-7777-6-7-11-11-11-11-11-11-14-14-14-14-|
D|--0-0000-0-0-0--0--0--0--0--0--0--0--0--0--|
A|-------------------------------------------|
E|-------------------------------------------|

This riff is played to the end.

The beauty of a lot of Doherty's work is its flexibility. He won't play it exactly the 
every time, so a rough sketch like this ought to set you up to be able to play this song 
your own style. Enjoy it, this is a beautiful piece.
            
Submit corrections

comments powered by Disqus
↑ Back to top | Babyshambles Tabs for Un Stookie Titled. Lyrics for acoustic guitar and electric guitar. Tablatures and chords are parodies/interpretations of the original songs. You may use it for private study, scholarship, research or language learning purposes only