>
 >
There She Goes

There She Goes Bass Tabs

Babyshambles - There She Goes chords, tabs, tablatures, lyrics

Guitar lessons | Add/correct | Request | Top 50 tabs Artists:  A B C D E F G H I J K L M N O P Q R S T U V W X Y Z 0-9

There She Goes Bass Tabs – Babyshambles

CD, Sheet music, Poster

Do you like There She Goes? Share with your friends now
Bass TabsChordsChords v2Ukulele

------------- Babyshambles - Shotters Nation - There She Goes -----------------

I've tabbed out half the song, but the second half is the same as the first, so just repeat it.


Standard Tuning - EADG


      E   E   E   E  E  E  E  E     E  E  E  E  E  E  E  E   
G||------------------------------|--------------------------|
D||------------------------------|--------------------------|
A||------------------------------|--------------------------|
E||--12--12--10--10--8--8--7--7--|--5--5--3--3--2--2--1--1--|


  E  E  E  E  E  S  E  S  E     E  E  E  E  E  S E  S E   
-----------------------------|---------------------------|
--------9-----7--------------|--------7-----5----7--4----|
-------------------10--9-----|------------------------5--|
--0----------------------10--|--5------------------------|


  E  E  E  E  E  S  E  S  E     E  E  E  S E  S E  S S E   
-----------------------------|----------------------------|
--------9-----7--------------|--------7----5--4-7--4------|
--7----------------10--9-----|-------------------------5--|
-------------------------10--|--5-------------------------|


  E  E  E  E  E  S  E  S  E     E  E  E  E  E  S E  S E   
-----------------------------|---------------------------|
--------9-----7--------------|--------7-----5----7--4----|
--7----------------10--9-----|------------------------5--|
-------------------------10--|--5------------------------|


  E  E  E  E  E  S  E  S  E     E  E  E  E  E  S E  S E   
-----------------------------|---------------------------|
--------9-----7--------------|--------7-----5----7--4----|
--7----------------10--9-----|------------------------5--|
-------------------------10--|--5------------------------|


  E  E  E  E  E  E  E  E     E  E  E  E  E  E  E  E     H        H         
--------------7--5--4-----|--------------------------|--------------------|
-----4--5--7-----------7--|--5-----------------------|--------------------|
--5-----------------------|-----8--7--5--------------|--3--------2--------|
--------------------------|--------------8--7--5--3--|--------------------|


  E  E  E  E  E  S  E  S  E     E  E  E  E  E  S E  S E   
-----------------------------|---------------------------|
--------9-----7--------------|--------7-----5----7--4----|
-------------------10--9-----|------------------------5--|
--0----------------------10--|--5------------------------|


  E  E  E  E  E  S  E  S  E     E  E  E  E  E  S E  S E   
-----------------------------|---------------------------|
--------9-----7--------------|--------7-----5----7--4----|
--7----------------10--9-----|------------------------5--|
-------------------------10--|--5------------------------|


  E  E  E  E  E  S  E  S  E     E  E  E  E  E  S E  S E   
-----------------------------|---------------------------|
--------9-----7--------------|--------7-----5----7--4----|
--7----------------10--9-----|------------------------5--|
-------------------------10--|--5------------------------|


  E  E  E  E  E  S  E  S  E     E  E  E  E  E  S E  S E   
-----------------------------|---------------------------|
--------9-----7--------------|--------7-----5----7--4----|
--7----------------10--9-----|------------------------5--|
-------------------------10--|--5------------------------|


  E  E  E  E  E  E  E  E     E  E  E  E  E  E  E  E     W                 
--------------7--5--4-----|--------------------------|-------------------|
-----4--5--7-----------7--|--5-----------------------|-------------------|
--5-----------------------|-----8--7--5--------------|--3----------------|
--------------------------|--------------8--7--5--3--|-------------------|


  W                   H        E   E  E  E     Q    Q    E.  S E.  S  
-------------------|------------------------|------------------------|
-------------------|--9---------------------|-------9----------9-----|
--2----------------|--------------10-----9--|--7---------7-----------|
-------------------|-----------8------7-----|------------------------|


  E  E  E  E  E  S E  S E     E  E  E  E  E  S E  S E   
---------------------------|---------------------------|
--------------7------------|--------9----------9-------|
--------7----------7----5--|--7-----------7------------|
--5------------------------|------------------------8--|


  E  E  E  E  E  E   E  E     E  E  E  E  E  S E.  E   
---------------------------|--------------------------|
--------------9--7---------|-------------------9------|
-----6--7--9--------10--9--|--7-----------7--------7--|
--7------------------------|--------7-----------------|


  E  E  E  E  E  S E.  E     E  E  E  E  E.  S Q       H        H         
--------------------------|-------------------------|--------------------|
--------------7-----------|--------9----------------|--------------------|
--------7----------7---5--|--7-----------------9----|--7-----------------|
--5-----------------------|--------------7----------|-----------7--------|


  E   E   E  E   E  E   E   E     E  E  E  E  E  E  E  E   
-------------------------------|--------------------------|
-------------8--10--8----------|--------------------------|
--8--10--11------------11--10--|-----------6--8--6--------|
-------------------------------|--6--8--9-----------9--8--|


  E   E   E  E   E  E   E   E      E   E  E  E   E   E   E   E   
-------------------------------|--------------------------------|
-------------8--10--8----------|--10--10--8--8------------------|
--8--10--11------------11--10--|----------------11--11--10--10--|
-------------------------------|--------------------------------|


  Q     Q    E  E   E.  S    E  E  E  E  E  S E  S E   
--------------------------|---------------------------|
-------10----------10-----|--------------8------------|
--8----------8------------|--------8----------8----6--|
--------------------------|--6------------------------|


  E  E   E  E  E  E   Q       H        H            E   E   E   E  E  E  E  E   
---------------------------|--------------------|------------------------------|
--------10-----------------|--------------------|------------------------------|
--8------------------10----|--8-----------------|------------------------------|
---------------8-----------|-----------8--------|--12--12--10--10--8--8--7--7--|


  W                                      
-------------------|-------------------||
-------------------|-------------------||
-------------------|-------------------||
--5----------------|-------------------||



Note Durations
---------------
W - whole
H - half
Q - quarter
E - 8th
S - 16th
. - note dotted





Comments


Popular Babyshambles tabs & chords
Albion Bass Tabs
Back From The Dead 1 Bass Tabs
Back From The Dead Chords
Ballad Of Grimaldi Chords
Fuck Forever Chords
Their Way Chords
Sticks And Stones Tabs
Wolfman Tabs
Chim Chim Cheree Ukulele
Un-bilo Ukulele


Song lyrics



↑ Back to top | Tablatures and chords are parodies/interpretations of the original songs. You may use it for private study, scholarship, research or language learning purposes only
© 2014 AZChords.com Contact us | Privacy policy | DMCA | Add/correct tabs | Request tabs | Top 50 tabs