» » »

Blinding Tabs (ver.2)

Artists:  A B C D E F G H I J K L M N O P Q R S T U V W X Y Z # 

Blinding Tabs (ver.2)

Babyshambles
Rating:
0/5 (0 votes)

Tabs too difficult? Try these video lessons and learn fast.
                -------------------------------------------------------------------------------
                             The Blinding - Babyshambles
-------------------------------------------------------------------------------

Tuning: Standard

okay i've updated this, last time i got the chorus a bit wrong so i've fixed it, comment 
rate and such. . .

Intro:

e|-------7------7------7------7------5------5---5----------------------------|
B|-------8------8------8------8------6------6---6----------------------------|
G|-------9------9------9------9------7------7---7----------------------------|
D|-------9------9------9------9------7------7---7----------------------------|
A|---------------------------------------------------------------------------|
E|---7-7----7-7----7-7----7-7----5-5----5-5----------------------------------|

Verse: Play this once and the second time stop early (just play the intro really)

e|-------7------7------7------7------5------5------5------5-----------|
B|-------8------8------8------8------6------6------6------6-----------|
G|-------9------9------9------9------7------7------7------7-----------|
D|-------9------9------9------9------7------7------7------7-----------|
A|--------------------------------------------------------------------|
E|---7-7----7-7----7-7----7-7----5-5----5-5----5-5----5-5-------------|

Now just play the verse again

Chorus Bit:

e|---7-7-xx-3-3-x-2-xx---3-2----|    |-7-7-xx-3-3-x-2---3-2-3-2-3-2-3-|
B|---7-7-xx-3-3-x-2-xx---3-2----|    |-7-7-xx-3-3-x-2---3-2-3-2-3-2-3-|
G|---8-8-xx-4-4-x-3-xx---4-3----| x3 |-8-8-xx-4-4-x-3---4-3-4-3-4-3-4-|
D|---9-9-xx-5-5-x-4-xx---5-4----|    |-9-9-xx-5-5-x-4---5-4-5-4-5-4-5-|
A|---9-9-xx-5-5-x-4-xx---5-4----|    |-9-9-xx-5-5-x-4---5-4-5-4-5-4-5-|
E|---7-7-xx-3-3-x-2-xx---3-2----|    |-7-7-xx-3-3-x-2---3-2-3-2-3-2-3-|


Now play the intro bit again

Verse Again

Chorus again but continue with. . .

e|--3~----5~----7---x-xx-x-x-xx-xx-------------------------------------------|
B|--3~----5~----7---x-xx-x-x-xx-xx-------------------------------------------|
G|--4~----4~----8---x-xx-x-x-xx-xx-------------------------------------------|
D|--5~----7~----9---x-xx-x-x-xx-xx-------------------------------------------|
A|--5~----7~----9---x-xx-x-x-xx-xx-------------------------------------------|
E|--3~----5~----7---x-xx-x-x-xx-xx-------------------------------------------|

Pick These Chords A Bit, and keep the B ringing for a while.

Break: This is where Pete has his rant about the Justice System (This is only rough) if 
like you can improvise with some bends n sh*t, it sounds cool.

e|--------------------------------------------------------------------|
B|--------------------------------------------------------------------|
G|--------------------------------------------------------------------|
D|-9-9-9-9-9-9-9-9-9-9-9-9-9-9-9-9-7-7-7-7-7-7-7-7-7-7-7-7-7-7-7-7----|
A|-9-9-9-9-9-9-9-9-9-9-9-9-9-9-9-9-7-7-7-7-7-7-7-7-7-7-7-7-7-7-7-7----|
E|-7-7-7-7-7-7-7-7-7-7-7-7-7-7-7-7-5-5-5-5-5-5-5-5-5-5-5-5-5-5-5-5----|

e|------------------------------------------------------------------|
B|------------------------------------------------------------------|
G|------------------------------------------------------------------|
D|-9-9-9-9-9-9-9-9-9-9-9-9-9-9-9-9-7-7-7-7-7-7-7-7-7~~--------------|
A|-9-9-9-9-9-9-9-9-9-9-9-9-9-9-9-9-7-7-7-7-7-7-7-7-7~~--------------|
E|-7-7-7-7-7-7-7-7-7-7-7-7-7-7-7-7-5-5-5-5-5-5-5-5-5~~--------------|

Then the verse again I think

Outro:

e|--4--6—-7~~~~~----------|
B|--4--6—-7~~~~~----------|
G|--5--7—-8~~~~~----------|
D|--6--8—-9~~~~~----------|
A|--6--8—-9~~~~~----------|
E|--4--6--7~~~~~----------|

And that’s it. . .

Keep in mind it’s only rough, and bits may need altered

Enjoy, And Please Rate :) :)


| /  slide up
| \  slide down
| h  hammer-on
| p  pull-off
| ~  vibrato
| +  harmonic
| x  Mute note
===============================================================================
            
Tabs too difficult? Try these video lessons and learn fast.


comments powered by Disqus
↑ Back to top | Tablatures and chords are parodies/interpretations of the original songs. You may use it for private study, scholarship, research or language learning purposes only