» » »

Fuck Forever Bass tabs (ver.1)

Artists:  A B C D E F G H I J K L M N O P Q R S T U V W X Y Z # 

Fuck Forever Bass tabs (ver.1)

Babyshambles
Rating:
0/5 (0 votes)

Tabs too difficult? Try these video lessons and learn fast.
                f**k Forever

Intro: Wait until drums come in and guitar played riff two times

G|------------------------|
D|-----45554-------2-4----|
A|-55--------55-5---------|
E|------------------------|

one and the same
G|------------------------|
D|-------(9)--------------|
A|-5-3-2-----2-2----------|
E|------------------------|

whats the use,  happy endings, way to make you pay
G|----------------------------------------|
D|--------------57777777------------------|
A|----------------------------------------|
E|--555555(hold)------------------5555555-|(hold)

taw the line (chorus) sever my ties
G|---------------------------|
D|---------------------------| (8 times)
A|------10-10-10-------999---|
E|--7-7----------10-10-------|

tall between death and glory
G|---------------------------------------|
D|-----------------57777777--------------|
A|---------------------------------------|
E|---555555(hold)----------------555555--|

one and the same
G|------------------------|
D|-------(9)--------------| (2 times)
A|-5-3-2-----2-2----------|
E|------------------------|

tell you about the way, way to make you pay, way to make you...
G|----------------|
D|----------------|
A|----------------|
E|------555555555-|(hold)

taw the line (chorus) sever my ties
G|---------------------------|
D|---------------------------| (8 times)
A|------10-10-10-------999---|
E|--7-7----------10-10-------|

during solo

G|---------------------------|
D|---------------------------|
A|------10-10-10-------999---|
E|--7-7----------10-10-------|

way to make you pay

G|----------------|
D|----------------|
A|----------------|
E|------555555555-|(hold)

chorus

G|---------------------------|
D|---------------------------| (8 times)
A|------10-10-10-------999---|
E|--7-7----------10-10-------|

Pete screaming
(funny guitar)
G|----------------------|
D|-----------------77---| (make your own show)
A|---9999999---79-------|
E|----------------------|

chorus

G|---------------------------|
D|---------------------------|
A|------10-10-----------9-9--| ( 3 times)
E|--7-7----------10-10-------|

fourth time (end)

G|------------------------|
D|-----45554-------2-4----|
A|-55--------55-5---------|
E|------------------------|
            
Tabs too difficult? Try these video lessons and learn fast.


comments powered by Disqus
↑ Back to top | Tablatures and chords are parodies/interpretations of the original songs. You may use it for private study, scholarship, research or language learning purposes only