» » »

Babyshambles, East Of Eden Tabs (ver.2)

Artists:  A B C D E F G H I J K L M N O P Q R S T U V W X Y Z # 

East Of Eden Tabs (ver.2)

Babyshambles Tabs
Rating:
5/5 (8 votes)
East Of Eden lessons Tabs too difficult? Try these video lessons and learn fast
                
Babyshambles
East of eden 

chords:
E      0 2 2 1 0 0
E/EB9? - 0 2 4 4 4
C#m    - 4 6 6 5 4
E7     0 2 0 1 0 0
A6     - 0 2 2 2 2 
B      - 2 4 4 4 2


Intro:

E     E/Eb9

E     c#m     A6      B  x2
           (Riff 1)

E     E7      A      Am

E    C#m     A6
           (Riff 2)

E     B


        Riff 1:

e|------5--5--5--4--2----0------------------------|
B|------2--2--2--2--2----4------------------------|
G|------2--2--2--2--2----4------------------------|
D|------2--2--2--2--2----4------------------------|
A|-----------------------2------------------------|
E|-----------------------0------------------------|

        Riff 2:                

e|------2-2-4--2----------------------------|
B|------2-2-2--2----------------------------|
G|------2-2-2--2----------------------------|
D|------2-----------------------------------|
A|------0-----------------------------------|
E|------------------------------------------|

 

The rest of the song repeats the intro chords
with just a few minor changes to strumming pattern
and a few diferent riffs. 
            
Submit corrections

comments powered by Disqus
↑ Back to top | Babyshambles Tabs for East Of Eden. Lyrics for acoustic guitar and electric guitar. Tablatures and chords are parodies/interpretations of the original songs. You may use it for private study, scholarship, research or language learning purposes only