» » »

Delivery Tabs (ver.1)

Artists:  A B C D E F G H I J K L M N O P Q R S T U V W X Y Z # 

Delivery Tabs (ver.1)

Babyshambles
Rating:
4/5 (19 votes)

Hard to play? Try these video lessons and learn fast.
                Babyshambles - Delivery

Intro lead
E-10-----10----10-----10------|
B---11-----11----11-----11----|
G-----12-----12----12-----12--|
D-----------------------------| x4
A-----------------------------|
E-----------------------------|

Intro Rhythm
 G   F G   F G   F G Bb
-3-x-1-3-x-1-3-x-1-3-6---|
-3-x-1-3-x-1-3-x-1-3-6---|
-4-x-2-4-x-2-4-x-2-4-7---| X2
-5-x-3-5-x-3-5-x-3-5-8---|
-5-x-3-5-x-3-5-x-3-5-8---|
-3-x-1-3-x-1-3-x-1-3-6---|

Verse
 G   F G   F G   F G Bb G   F G   F G   F G Bb Cm  Bm Bbm
-3-x-1-3-x-1-3-x-1-3-6-|3-x-1-3-x-1-3-x-1-3-6-|3---2---1-|
-3-x-1-3-x-1-3-x-1-3-6-|3-x-1-3-x-1-3-x-1-3-6-|4---3---2-|
-4-x-2-4-x-2-4-x-2-4-7-|4-x-2-4-x-2-4-x-2-4-7-|5---4---3-|
-5-x-3-5-x-3-5-x-3-5-8-|5-x-3-5-x-3-5-x-3-5-8-|5---4---3-|
-5-x-3-5-x-3-5-x-3-5-8-|5-x-3-5-x-3-5-x-3-5-8-|3---2---2-|
-3-x-1-3-x-1-3-x-1-3-6-|3-x-1-3-x-1-3-x-1-3-6-|3---2---1-|

Chorus Rhythm
 Cm        F         Bb        D
-3-3-3-3-3-1-1-1-1-1-6-6-6-6-6-10-10-10-10-10--|
-4-4-4-4-4-1-1-1-1-1-6-6-6-6-6-10-10-10-10-10--|
-5-5-5-5-5-2-2-2-2-2-7-7-7-7-7-11-11-11-11-11--|
-5-5-5-5-5-3-3-3-3-3-8-8-8-8-8-12-12-12-12-12--| x2
-3-3-3-3-3-3-3-3-3-3-8-8-8-8-8-12-12-12-12-12--|
-3-3-3-3-3-1-1-1-1-1-6-6-6-6-6-10-10-10-10-10--|

Chorus Lead
--3----1----6-----10------|
-4-4--1-1--6-6--10--10----|
----5----2----7-------11--| x2
--------------------------|
--------------------------|
--------------------------|

Solo Rhythm
G   F G   F G   F G Bb G   F G   F G   F G Bb Cm  Bm Bbm
-3-x-1-3-x-1-3-x-1-3-6-|3-x-1-3-x-1-3-x-1-3-6-|3---2---1-|
-3-x-1-3-x-1-3-x-1-3-6-|3-x-1-3-x-1-3-x-1-3-6-|4---3---2-|
-4-x-2-4-x-2-4-x-2-4-7-|4-x-2-4-x-2-4-x-2-4-7-|5---4---3-|
-5-x-3-5-x-3-5-x-3-5-8-|5-x-3-5-x-3-5-x-3-5-8-|5---4---3-|
-5-x-3-5-x-3-5-x-3-5-8-|5-x-3-5-x-3-5-x-3-5-8-|3---2---2-|
-3-x-1-3-x-1-3-x-1-3-6-|3-x-1-3-x-1-3-x-1-3-6-|3---2---1-|

Solo
------------------------------------------------|
------------------------------------------------|
-12--12--12-12-12-10--10-12-10---------10--10---|
--------------------12--------12-10-12---12-----|
------------------------------------------------|
------------------------------------------------|

------------------------------3-6hp3-3-6hp3---------|
--------------------------6-6---------------5-3-----|
-5--5--5-5-5-3-3-----3-------------------------5b-3-|
--------------5-5-3-5-5-----------------------------|
----------------------------------------------------|
----------------------------------------------------|

Interlude
-3--3----1--6--3--3----1-1-6-6-|
-4-4--4--1--6--4-4-4---1-1-6-6-|
-5-----5-2--7--5----5--2-2-7-7-|
-5-------3--8--5-------3-3-8-8-|
-3-------3--8--3-------3-3-8-8-|
-3-------1--6--3-------1-1-6-6-|

-3--3----1--6--3--3----1-1-1-1-6-6-6-|
-4-4--4--1--6--4-4-4---1-1-1-1-6-6-6-|
-5-----5-2--7--5----5--2-2-2-2-7-7-7-|
-5-------3--8--5-------3-3-3-3-8-8-8-|
-3-------3--8--3-------3-3-3-3-8-8-8-|
-3-------1--6--3-------1-1-1-1-6-6-6-|


By, oh by, the way
Of an explanation
Cast adrift
Off the shores of Shotter’s Nation
I had a look in,
Cave my skull in like a prick
Oh now
What use am I to anyone?
f**ked, forlorn and frozen,
Beneath the summer
Don’t sing along
Or you’ll get what I’ve got, oh

Here comes a delivery
Straight from the heart of my misery
So, comes a delivery
Straight from the heart, to you.

Yeah you, now you, now you
You’ve finally left school
Oh what on earth
Do you intend to do?
See if you can,
Take the man, go round town
Where all your Skins, and Mod’s
You get together
Make pretend
It’s 1969 forever
Find a girl, have a drink,
Have a dance and play

The song that’ll deliver me
Straight from the harshness of misery
Cos this songs a delivery
Straight from the heart to you

Yes here comes a delivery
Straight from the heart of my misery
Oh that song that’ll deliver me
Straight from the heart, to you

So here comes a delivery
Straight from the heart of my misery
Here comes a delivery
Straight from the heart, to you
            
Hard to play? Try these video lessons and learn fast. | Correct




comments powered by Disqus
↑ Back to top | Tablatures and chords are parodies/interpretations of the original songs. You may use it for private study, scholarship, research or language learning purposes only