» » »

Babyshambles, Delivery Bass tabs (ver.1)

Artists:  A B C D E F G H I J K L M N O P Q R S T U V W X Y Z # 

Delivery Bass tabs (ver.1)

Babyshambles Tabs
 Rating:
4.2/5 (5 votes)
Delivery lessons Tabs too difficult? Try these video lessons and learn fast
                hey im pretty dam sure this is right as i have played it with a band and it sounds 

Intro and Verse: bass come in at 7seconds
---------------------------------------|
---------------------------------------| play 4x
--------------1------------------------|
3-1-3-1-3-1-3--------------------------|


then

---------------------------------------|
---------------------------------------| play 1x
-3-3-3-3-2-2-1-1-----------------------|
---------------------------------------|

---------------------------------------|
---------------------------------------| play 2x
--------------1------------------------|
3-1-3-1-3-1-3--------------------------|

---------------------------------------|
---------------------------------------| play 1x
-3-3-3-3-2-2-1-1-----------------------|
---------------------------------------|

Chorus:

---------------------------------------|
---------------------------------------|
---------3-3-------------1-1-5-5-------|
-3-3-3-3-----1-1-1-1-1-1---------------|

---------------------------------------|
---------------------------------------|
---------3-3-------------1-1-5-5-------|
-3-3-3-3-----1-1-1-1-1-1---------3-----|

Verse:
---------------------------------------|
---------------------------------------| play 2x
--------------1------------------------|
3-1-3-1-3-1-3--------------------------|

---------------------------------------|
---------------------------------------| play 1x
-3-3-3-3-2-2-1-1-----------------------|
---------------------------------------|

---------------------------------------|
---------------------------------------| play 2x
--------------1------------------------|
3-1-3-1-3-1-3--------------------------|

---------------------------------------|
---------------------------------------| play 1x
-3-3-3-3-2-2-1-1-----------------------|
---------------------------------------|

Chorus:

---------------------------------------|
---------------------------------------| play 4x
---------3-3-------------1-1-5-5-------|
-3-3-3-3-----1-1-1-1-1-1---------------|

Solo:
---------------------------------------|
---------------------------------------| play 2x
--------------1------------------------|
3-1-3-1-3-1-3--------------------------|

---------------------------------------|
---------------------------------------| play 1x
-3-3-3-3-2-2-1-1-----------------------|
---------------------------------------|

Bridge:
---------------------------------------|
---------------------------------------|
-----3-----1-5----2-----3333-5555------| play 1x
--3----1-1------3---1-1----------------|

---------------------------------------|
---------------------------------------| play 2x
---------3-3-------------1-1-5-5-------|
-3-3-3-3-----1-1-1-1-1-1---------------|

Ending:
---------------------------------------|
---------------------------------------| play 1x
---------3-3-------------1-1-5-5-------|
-3-3-3-3-----1-1-1-1-1-1---------------|

---------------------------------------|
---------------------------------------| play 1x
---------3-3-------------1-1-1-5-5-5---|
-3-3-3-3-----1-1-1-1-1-1-------------3-|
            
Submit corrections

comments powered by Disqus
↑ Back to top | Babyshambles Bass for Delivery. Lyrics for acoustic guitar and electric guitar. Tablatures and chords are parodies/interpretations of the original songs. You may use it for private study, scholarship, research or language learning purposes only