» » »

Babyshambles, Cuckoo 1440 Tabs (ver.2)

Artists:  A B C D E F G H I J K L M N O P Q R S T U V W X Y Z # 

Cuckoo 1440 Tabs (ver.2)

Babyshambles Tabs
 Rating:
4/5 (4 votes)
Cuckoo 1440 lessons Tabs too difficult? Try these video lessons and learn fast
                (Intro)
|-------------------|       
|-------------------|  
|-------------------|     
|--14-12-14-12-14---| x2  
|-------------------|     
|-------------------

|-------------------|
|-------------------|  
|-------------------|     
|--14-12-14-12-10---| x2  
|-------------------|     
|-------------------| 

|-------------------|    
|-------------------|  
|-------------------|     
|--14-12-14-12-14---| x2  
|-------------------|     
|-------------------| 

|-------------------|
|-------------------|  
|-------------------|     
|--14-12-14-12-10---| x2  
|-------------------|     
|-------------------| 

|-------------------|
|-------------------|  
|-------------------|     
|--14-12-14-12-14---| 
|-------------------|     
|-------------------| 

|-------------------|
|-------------------|  
|-------------------|     
|--14-12-14-12-10---| x2  
|-------------------|     
|-------------------|

|-------------------|
|-------------------|  
|-------------------|     
|--14-12-14-12-14---| 
|-------------------|     
|-------------------| 

|-------------------|
|-------------------|  
|-------------------|     
|--14-12-14-12-10---| x4  
|-------------------|     
|-------------------|

Chords: 
|------------------------------|
|------------------------------|
|------------------------------|
|---7-----10-----12-----14-----| x2
|---7-x5--10-x5--12-x5--14-x5--|
|---5-----8------10-----12-----|

|------------------------------|
|------------------------------|
|--10----12--------------------|
|--10-x3-12--10----------------|
|--8-----10--10----------------|
|------------8-----------------|

|------------------------------|
|------------------------------|
|------------------------------|
|---7-----10-----12-----14-----| x2
|---7-x5--10-x5--12-x5--14-x5--|
|---5-----8------10-----12-----|

|------------------------------|
|------------------------------|
|--10----12--------------------|
|--10-x3-12--10----------------|
|--8-----10--10----------------|
|------------8-----------------|
            
Submit corrections

comments powered by Disqus
↑ Back to top | Babyshambles Tabs for Cuckoo 1440. Lyrics for acoustic guitar and electric guitar. Tablatures and chords are parodies/interpretations of the original songs. You may use it for private study, scholarship, research or language learning purposes only