» » »

Babyshambles, Baddies Boogie Tabs (ver.2)

Artists:  A B C D E F G H I J K L M N O P Q R S T U V W X Y Z # 

Baddies Boogie Tabs (ver.2)

Babyshambles Tabs
 Rating:
4.4/5 (7 votes)
Baddies Boogie lessons Tabs too difficult? Try these video lessons and learn fast
                -------------------------------------------------------------------------------
-------------------------------------------------------------------------------

This is based on version 1 by Tusseto, I just updated the text and made some other little changes


e|---5---3---5----3----------------------------------------------------------|
B|-----5------5-5------------------------------------------------------------|
G|-5-------5-----------------------------------------------------------------|
D|---------------------------------------------------------------------------|
A|---------------------------------------------------------------------------|
E|---------------------------------------------------------------------------|

4x

then the second guitar:

e|-------16-14-------16-14----14----------------------------------------------------|
B|----16----------16-------16-------------------------------------------------------|
G|-16----------16-------------------------------------------------------------------|
D|----------------------------------------------------------------------------------|
A|----------------------------------------------------------------------------------|
E|----------------------------------------------------------------------------------|

   C   Am  G   F

e|-8-|-5-|-3-|-1-|
B|-8-|-5-|-3-|-1-|
G|-9-|-5-|-4-|-2-|
D|10-|-7-|-5-|-3-|
A|10-|-7-|-5-|-3-|
E|-8-|-5-|-3-|-1-|


C
Baddie’s bound by ancient codes
Am
of decency and secrecy
G
he understands about
F
stabbin’ backs and shaking hands
C
So if or when you’re behind bars or
Am
in front of them as you are
G
Look out for the man who’ll
F
bum your wife and then shake your hand

C                    Am
Oh you’ve been here before
             C                             Am
you fell in love and carried her over the threshold

Thinking
C
She’s far too good looking
E
to do the cooking
Am                         D
now that was twenty years ago
Dm
twenty years ago

And now she’s thinking
Am                                   D
It’s a lousy life for the washed up wife
                  Dm
of a permanently plastered p**sed up bastard
Am                              D
A lousy life for the washed up wife
                  Dm
of a permanently plastered p**sed up bastard
Am                              D
A lousy life for the washed up wife
                  Dm
of a permanently plastered p**sed up bastard
Lousy life, a lousy life

Dm                      Em
Kid was singing will I ever be free
F                   G
does this town hold no more for me
Dm                  Em
Club Tropicana the drinks are free
F                 G
stick one in his face for me
            
Submit corrections

comments powered by Disqus
↑ Back to top | Babyshambles Tabs for Baddies Boogie. Lyrics for acoustic guitar and electric guitar. Tablatures and chords are parodies/interpretations of the original songs. You may use it for private study, scholarship, research or language learning purposes only