» » »

Babyshambles, Baddies Boogie Bass tabs (ver.1)

Artists:  A B C D E F G H I J K L M N O P Q R S T U V W X Y Z # 

Baddies Boogie Bass tabs (ver.1)

Babyshambles Tabs
 Rating:
4/5 (4 votes)
Baddies Boogie lessons Tabs too difficult? Try these video lessons and learn fast
1
                -------------------------------------------------------------------------------
-------------------------------------------------------------------------------


Tuning: Standard

Intro Pt 1: 

G|---------------------------------------------------------------------------|
D|---------------------------------------------------------------------------|
A|-----Guitar-plays-here--No-Bass--------------------------------------------|
E|---------------------------------------------------------------------------|

G|---17~---14~---12~---10~--------------------------------------------|
D|--------------------------------------------------------------------|
A|---15~---12~---10~----8~--8/15~-15h17-15-14-12~-12h14-10~--x/8-7-5\-|
E|--------------------------------------------------------------------|

Intro Pt 2: Play twice

G|-------------------------------------------------------------------|
D|-------------------------------------------------------------------|
A|----3-3-3-x-x-3-x-3-x-3--------------------------------------------|
E|------------------------3/5-5-5-x-x-5-x-5-x-5-3-3-3-x-x-3-x-3-x-3--|

G|------------------|
D|------------------|
A|----x/8-7-5-------|
E|------------8/10--|
	
Verse: Play twice

G|-------------------------------------------------------------------|
D|-------------------------------------------------------------------|
A|----3-3-3-x-x-3-x-3-x-3--------------------------------------------|
E|------------------------3/5-5-5-x-x-5-x-5-x-5-3-3-3-x-x-3-x-3-x-3--|

G|------------------|
D|------------------|
A|----x/8-7-5-------| 
E|------------8/10--| 
  ^Play first time only


Pre-Chorus:

G|-------------------------|
D|-------------------------|
A|----3~--------3~---------|
E|---------5~--------5~----|

G|-----------------------------------------------------------------------|
D|-----------------------------------------------------------------------|
A|--0-2-3-3-3-x-3-3-3-/-7-7-7-x-x-7-5-3-2-0-0-0--0-0-x-5-5-5--5-5/8-7-5\-|
E|-----------------------------------------------------------------------|

Chorus:

G|-------------------------|
D|-------------------------|
A|----------3h5-5~-3h5-5~--| x4
E|---3h5-5~----------------|

G|--------------------------------------------|
D|--------------------------------------------|
A|---5-5-5-x-x-7-7-7-x-x-8-8-8-x-x-10-10-10---|
E|--------------------------------------------|

G|-----------------------------------------------------|
D|-----------------------------------------------------|
A|---5-5-5-x-x-7-7-7-x-x---8---8---10-----10-10-8-7-5--|
E|---------------------------8---8----10---------------|


Break:

G|--------------------------------|
D|--------------------------------|
A|---15~~--12~~--10~~--x/8-7-5\---|
E|--------------------------------|

G|---------------------------------------------------------------------------|
D|---------------------------------------------------------------------------|
A|--3-3-3-x-x-3-x-3-x-3-----------------------------------------x/8-7-5------|
E|----------------------5-5-5-x-x-5-x-5-x-5-3-3-3-x-x-3-x-3-x-3---------8/10-|

G|---------------------------------------------------------------------------|
D|---------------------------------------------------------------------------|
A|--3-3-3-x-x-3-x-3-x-3-----------------------------------------x/8-7-5------|
E|----------------------5-5-5-x-x-5-x-5-x-5-3-3-3-x-x-3-x-3-x-3---------8/10-|


Pre-Chorus:

G|---------------------------------------------|
D|---------------------------------------------|
A|--3~-----3~------3~--7~-------5~--8-7-5\-----|
E|-----5~-----5~------------5~-----------------|


Chorus:

G|-------------------------|
D|-------------------------|
A|----------3h5-5~-3h5-5~--| x4
E|---3h5-5~----------------|

G|--------------------------------------------|
D|--------------------------------------------|
A|---5-5-5-x-x-7-7-7-x-x-8-8-8-x-x-10-10-10---|
E|--------------------------------------------|

G|-------------------------------------------------------|
D|-------------------------------10----------------------|
A|---5-5-5-x-x-7-7-7-x-x---8---8-----10-----10-10-8-7-5--|
E|---------------------------8----------10---------------|


Outro:

G|--------------------------------|
D|--------------------------------|
A|---15~~--12~~--10~~--x/8-7-5\---|
E|--------------------------------|

G|---------------------------------------------------------------------------|
D|---------------------------------------------------------------------------|
A|--3-3-3-x-x-3-x-3-x-3-----------------------------------------x/8-7-5------|
E|----------------------5-5-5-x-x-5-x-5-5-7-3-3-3-x-x-3-x-3-x-3---------8/10-|

G|---------------------------------------------------------------------------|
D|---------------------------------------------------------------------------|
A|--3-3-3-x-x-3-x-3-x-3-----------------------------------------x/8-7-5-7-3~~|
E|----------------------5-5-5-x-x-5-x-5-5-7-3-3-3-x-x-3-x-3-x-3--------------|


And that's it

Rate/Comment Please.

Thank You.


| /  slide up
| \  slide down
| h  hammer-on
| p  pull-off
| ~  vibrato
| +  harmonic
| x  Mute note
===============================================================================
            
Submit corrections

comments powered by Disqus
↑ Back to top | Babyshambles Bass for Baddies Boogie. Lyrics for acoustic guitar and electric guitar. 1 Tablatures and chords are parodies/interpretations of the original songs. You may use it for private study, scholarship, research or language learning purposes only