>
 >
Back From The Dead 1

Back From The Dead 1 Bass Tabs

Babyshambles - Back From The Dead 1 chords, tabs, tablatures, lyrics

Guitar lessons | Add/correct | Request | Top 50 tabs Artists:  A B C D E F G H I J K L M N O P Q R S T U V W X Y Z 0-9

Back From The Dead 1 Bass Tabs – Babyshambles

CD, Sheet music, Poster

Do you like Back From The Dead 1? Share with your friends now
Bass TabsBass Tabs v2ChordsChords v2Chords v3Chords v4TabsTabs v2Ukulele
Song   -Back From The Dead
Artist -Baby Shambles
album  - Down in Albion
Bassist-Drew McConnell

| /  slide up
| \  slide down
| h  hammer-on
| p  pull-off
| ~  vibrato
| +  harmonic
| x  Mute note

Intro
G---------------------|
D---------9-7-9-7-----|
A-77-5-0-------------|
E-0-------------------|

Main Riff
G--------------------------------------------------------|
D------------------------------555x55x55-------------every few lines he plays
A-----------------999x99x99-------------7777-97----------|
E-777x-77x-77----------------------------------97--------|

G--------------------------77--------------77--7-5---------|
D-------------------------5--5---77-----5---5------7-5-----|
A-------------999x99x99---------5---5-----------------------|
E-777x-77x-77-----------------------------------------------|

Fill
G--------------------------------------------------------------|
D---------------------------------------------9-7--------------|
A---------------------9----------------------9----9-7----------|
E-777x77x77-777x77x77--777x77x77x-777x77x77-----------9-7-0-7--|

Bridge bit
G-----------------------------|----------------------|
D-9-7h9-----------9-7h9------|---------99-------99--|
A----------9-7-0--------9-7-0-|----99--77---99-7-7--|
E-7---------------7-----------|---77-------7-7------|

This is a real awesome song and quite easily played
there are some fills almost inaudible but i have done my best on them so please correct as you see fit

Cameron





Comments


Popular Babyshambles tabs & chords
French Dog Blues 2 Chords
Lust Of The Libertines Chords
Merry Go Round Chords
Un-bilo 1 Chords
Beg, Steal Or Borrow 1 Tabs
East Of Eden Tabs
Lost Art Of Murder Tabs
Lost Art Of Murdr Intro Tabs
Carry Up On The Morning Ukulele
Do You Know Me Ukulele


Song lyrics



↑ Back to top | Tablatures and chords are parodies/interpretations of the original songs. You may use it for private study, scholarship, research or language learning purposes only
© 2014 AZChords.com Contact us | Privacy policy | DMCA | Add/correct tabs | Request tabs | Top 50 tabs