» » »

Babyshambles, Back From The Dead Bass tabs (ver.2)

Artists:  A B C D E F G H I J K L M N O P Q R S T U V W X Y Z # 

Back From The Dead Bass tabs (ver.2)

Babyshambles Tabs
Rating:
5/5 (2 votes)
Back From The Dead lessons Tabs too difficult? Try these video lessons and learn fast
                Song   -Back From The Dead
Artist -Baby Shambles
album  - Down in Albion
Bassist-Drew McConnell

| /  slide up
| \  slide down
| h  hammer-on
| p  pull-off
| ~  vibrato
| +  harmonic
| x  Mute note

Intro
G---------------------|
D---------9-7-9-7-----|
A—-77-5-0-------------|
E-0-------------------|

Main Riff
G--------------------------------------------------------|
D------------------------------555x55x55-------------every few lines he plays
A-----------------999x99x99-------------7777-97----------|
E-777x-77x-77----------------------------------97--------|

G--------------------------77--------------77—--7-5---------|
D-------------------------5--5-—--77-----5---5------7-5-----|
A-------------999x99x99---------5---5-----------------------|
E-777x-77x-77-----------------------------------------------|

Fill
G--------------------------------------------------------------|
D---------------------------------------------9-7--------------|
A---------------------9----------------------9----9-7----------|
E-777x77x77-777x77x77--777x77x77x-777x77x77-----------9-7-0-7--|

Bridge bit
G-----------------------------|----------------------|
D—-9-7h9-----------9-7h9------|---------99-------99--|
A----------9-7-0--------9-7-0-|----99--7—7---99-7-7--|
E-7---------------7-----------|---7—7-------7-7------|

This is a real awesome song and quite easily played
there are some fills almost inaudible but i have done my best on them so please correct as you see fit

Cameron
            
Submit corrections

comments powered by Disqus
↑ Back to top | Babyshambles Bass for Back From The Dead. Lyrics for acoustic guitar and electric guitar. Tablatures and chords are parodies/interpretations of the original songs. You may use it for private study, scholarship, research or language learning purposes only