» » »

Babyshambles, Back From The Dead Bass tabs (ver.1)

Artists:  A B C D E F G H I J K L M N O P Q R S T U V W X Y Z # 

Back From The Dead Bass tabs (ver.1)

Babyshambles Tabs
 Rating:
4/5 (5 votes)
Back From The Dead lessons Tabs too difficult? Try these video lessons and learn fast
                -------------------------------------------------------------------------------
-------------------------------------------------------------------------------


Tuning: Standard

The other tabs okay, but I think this is near enough spot on!



Intro Pt1:

G|------------------------------------------------------------------------|
D|-----9-7h9-7-----------9-7h9-7-----------9-7h9-7-----------9-7h9-7------|
A|-------------10-9--------------10-9--------------10-9--------------x-9\-|
E|--7---------------10-7--------------10-7--------------10-7--------------|

Intro Pt2:

G|-------------------------------------------12------11-----9--------14-----------|
D|--------------------------------------------------------------------------------|
A|--2-2-2-x-2-2-x-2-2-/-9-9-9-x-9-9-9-9-10-10--10\9-9--9\7-7-7/-12-12--13-14-15\\-|
E|--------------------------------------------------------------------------------|

G|-------------------------------------------12------11-----9--------14-----------|
D|--------------------------------------------------------------------------------|
A|--2-2-2-x-2-2-x-2-2-/-9-9-9-x-9-9-9-9-10-10--10\9-9--9\7-7-7/-12-12--13-14-15\\-|
E|--------------------------------------------------------------------------------|

G|-------------------------------------------------------------------------|
D|-------------------------------------------------------------------------|
A|--2-2-2-x-2-2-x-2-2-x-----2-2-2-x-2-2-x-5-5--2-2-2-x-2-2-x-2-2-x---------|
E|----------------------2-2----------------------------------------2-2-----|

G|-----------------------|
D|--/9-7-----------------|
A|-------10-9-7----------|
E|--------------10-9-7-\-|

Verse:

G|----------------------------------------------------------------------|
D|----------------------------------------------------------------------|
A|--2-2-2-x-2-2-x-2-2-/-9-9-9-x-9-9-9-9-10-10-10-9-9-9-7--7-9-7-5-4-----| x2
E|----------------------------------------------------------------------|


G|----------------------------------------------------------------------|
D|----------------------------------------------------------------------|
A|--2-2-2-x-2-2-x-2-2---------------------------------------------------|
E|--------------------2-2-2-x-2-2-x-2-2--3-3-3-2-2-2-0--0--5-x-5-x-5----|


G|-------------------------------------------12------11-----9--------14-----------|
D|--------------------------------------------------------------------------------|
A|--2-2-2-x-2-2-x-2-2-/-9-9-9-x-9-9-9-9-10-10--10\9-9--9\7-7-7/-12-12--13-14-15\\-|
E|--------------------------------------------------------------------------------|

G|--------------------------------------------12------11-----9-------14-----------|
D|--------------------------------------------------------------------------------|
A|--2-2-2-x-2-2-x-2-2-------------------/10-10--10\9-9--9\7-7-7/12-12--13-14-15\\-|
E|--------------------2-2-2-x-2-2-x-2-2-------------------------------------------|


Break: (“It’s only just around the corner…”)

G|--------------------------------------------------------------------------|
D|----9-7h9-7-----------9-7h9-7-------------4-------------------------------|
A|------------10-9--------------10-9------------4-------2-----------0-0-0h1-|
E|--7--------------10-7--------------10-\-2--------2--3---3-0-0-0-0---------|

G|-------------------------------------------------------------------------|
D|-------------------------------------------------------------------------|
A|--2-2-2-x-2-2-x-2-2-x-----2-2-2-x-2-2-x-5-5--2-2-2-x-2-2-x-2-2-x---------|
E|----------------------2-2----------------------------------------2-2-----|

G|-------------------------|
D|-/9-7--------------------|
A|------10-9-7-------------|
E|-------------10-9-7------|

Outro

G|----------------------------------------------------------------------|
D|----------------------------------------------------------------------|
A|--2-2-2-x-2-2-x-2-2-/-9-9-9-x-9-9-9-9-10-10-10-9-9-9-7--7-9-7-5-4-----| x4
E|----------------------------------------------------------------------|



G|--------------------------------------------------------9-7-6-4~-----0~---------|
D|-----------------------------------------------------------------7~------7~-9~~-|
A|--2-2-2-x-2-2-x-2-2-/-9-9-9-x-9-9-9-9-10-10-10-9-9-9-7--7-5-4-2~----------------|x2
E|-----------------------------------------------------------------5~--3~--5~-7~~-|


Thanks!!

| /  slide up
| \  slide down
| h  hammer-on
| p  pull-off
| ~  vibrato
| +  harmonic
| x  Mute note
===============================================================================
            
Submit corrections

comments powered by Disqus
↑ Back to top | Babyshambles Bass for Back From The Dead. Lyrics for acoustic guitar and electric guitar. Tablatures and chords are parodies/interpretations of the original songs. You may use it for private study, scholarship, research or language learning purposes only