>
 >
At The Flophouse

At The Flophouse Guitar Tabs

Babyshambles - At The Flophouse chords, tabs, tablatures, lyrics

Guitar lessons | Add/correct | Request | Top 50 tabs Artists:  A B C D E F G H I J K L M N O P Q R S T U V W X Y Z 0-9

At The Flophouse Guitar Tabs – Babyshambles

CD, Sheet music, Poster

Do you like At The Flophouse? Share with your friends now
Tabs
Babyshambles - At the flophouse

Tuning:standard

note - during intro from Am to Bm5, slide Am up 2 frets leaving top string open.
Probly an idea to look at the chords at the bottom first, cos all the picking bits
are based around these chords. mite make it a bit easier.


intro                                                                 Em

e|-3-7777777-3-7777777-3-7777777-7777777---33-5-7-5-3--22-3-5-3-2-------0----|
B|-3-3333333-3-3333333-3-3333333-3333333---33-3-3-3-3--33-3-3-3-3-------0----|
G|-0---------0---------0---------0--------------------------------------0----|
D|------------------------------------------------------------------0-2-2----|
A|------------------------------------------------------------------0-2-2----|
E|------------------------------------------------------------------0-0-0----|

           Am  Bm5           Am*        Bm*      Am  Bm       C      D

e|-------------0---0---------5-5-------7-7---0-0----2-2---------0--2---------|
B|----------1----3--3--------5-5-------7-7---0h1----3-3--0h1p0--1--3--0---0--|
G|----------2----4--4-----5------------------0h2--4-4-4------0--0--2--0h2p0--|
D|-0h2--------------------7----------9---------2--4-------------2--0---------|
A|-0h2---0----------------7----------9------------2-------------3------------|
E|------------------------5----------7---------------------------------------|

    G
e|----3-3--3-3---------------------------------------------------------------|
B|----3-3--3-3---------------------------------------------------------------|
G|----0-0--0-0---------------------------------------------------------------|
D|---------------------------------------------------------------------------|
A|--2-----2------------------------------------------------------------------|
E|--3-----3------------------------------------------------------------------|

  everythings got to be..                     that boy..   ..approach me
Verse 1           G              Em             Am   Bm5     Am*      Bm*

e|-------------------------------0--------0--------0---0--------5-------7----|
B|-------------------------------0--------0------1---3---3--------5-------7--|
G|-----------------------------0-0--------0------2---4---4--------5-------7--|
D|------0-0-0----------0-------0h2--0h2p0-2-------------------7-------9------|
A|--2-2-0-1-0-2--0-0-0-0-0-0---0h2--0h2p0-2----0-----------------------------|
E|--3-3-------3--2-2-3---3-2-----0--------0----------------------------------|

  all he's gota say.. say it today   maybe not
Am        Bm           C   D         G

e|----0-----2-2--------0---2---------3---------------------------------------|
B|--0h1-----3-3--0h1p0-1---3-0---0---3---------------------------------------|
G|--0h2--4--4-4------0-0---2-0h2p0---0---------------------------------------|
D|--0-2--4-------------2---0---------0---------------------------------------|
A|-------2-------------3-------------2---------------------------------------|
E|-----------------------------------3---------------------------------------|

Chorus- so sad....   mean you no.. so sad ...mean you no ... chasin you

     G                    D*         G          D*C# C*
e|---3-------------------------------3---------------------------------3-----|
B|---3--------------------7----------3----------7--6--55555------------3-----|
G|---0--------------------7----------0----------7--6--55555------------0-----|
D|---0--------------------7----------0----------7--6--55555------------0-----|
A|---2--------------------5----------2----------5--4--33333------------2-----|
E|---3-------------------------------3---------------------------------3-----|

intro
verse 1
verse 2
chorus
verse 3

chords

G - 320033
Am - x02210
Bm - x24432
Bm5 - x24430
Am* - 577555
Bm* - 799777
Em - 022000
C - x32010
D - xx0232
C* - x3555
D* - 5777
C#* - 4666


| /  slide up
| \  slide down
| h  hammer-on
| p  pull-off
| ~  vibrato
| +  harmonic
| x  Mute note
===============================================================================





Comments


Popular Babyshambles tabs & chords
Back From The Dead 1 Chords
Maybelline Chords
You Dont Know Me Chords
Beg Steal Or Borrow Tabs
From Bollywood To Battersea 1 Tabs
Fuck Forever Tabs
Fuck Forever 4 Tabs
Revelations Tabs
Albion Ukulele
Lust Of The Libertines Ukulele


Song lyrics



↑ Back to top | Tablatures and chords are parodies/interpretations of the original songs. You may use it for private study, scholarship, research or language learning purposes only
© 2014 AZChords.com Contact us | Privacy policy | DMCA | Add/correct tabs | Request tabs | Top 50 tabs