» » »

Babyshambles, 8 Dead Boys Tabs (ver.1)

Artists:  A B C D E F G H I J K L M N O P Q R S T U V W X Y Z # 

8 Dead Boys Tabs (ver.1)

Babyshambles Tabs
 Rating:
4/5 (13 votes)
8 Dead Boys lessons Tabs too difficult? Try these video lessons and learn fast
                Babyshambles - 8 Dead Boys
Album - Down In Albion

Tuning - Standard (EADGBe)


  
   Eight dead boys, sittin on a wall     eight
e|------------------------------------0-------------|
B|-----------------------------------------0--------|
G|-----------------------------------------0--------|
D|-----------------------------------------0--------|
A|-----------------------------------------0--------|
E|-----------------------------------------0--------|


   |Let ring 6 seconds|
e|-0-----------------------0---------------------2-2-2-2--|
B|-0-----------------------0---2----x-----0-0-0--0-0-0-0--|
G|-0-----------------------0---2----x-----0-0-0--2-2-2-0--|
D|-0-----------------------0---2----x-2-2-0-0-0--1-1-1-1--|
A|-0-----------------------0---0----x-2-3---x----2-2-2-2--|
E|-0-----------------------0----------------3-------------|



e|----x-x-------3-3----14-14-14------------------2-2-2-2--|
B|----x-x-----0-0-0----15-15-15---2------0-0-0-0-0-0-0-0--|
G|-0--x-x-----0-0-0----14-14-14---2------0-0-0---2-2-2-2--|
D|-3--x-x-----0-0-0--0-------0----2------x---x---1-1-1-1--|
A|-3----------0-0----0-------0----0----2-3---3---2-2-2-2--|
E|-1------3-4---------------------------------------------|


                     *Point A*
                        V
e|--------------------------------------------------------|
B|----------------3~----5---5--7-7-7b(8)r7p0--------------|
G|-0----------2---2~--------------------------------------|
D|-3----------x---0~--------------------------------------|
A|-3----------0-0-----------------------------------------|
E|-1----3-4-3---------------------------------------------|

                                              *Point B*
                                                  V
e|--------------------------------------------------------|
B|-8---8--10-10-10b(11)r10p0---3---3--5-5-5b(6)r5p0-------|
G|--------------------------------------------------------|
D|--------------------------------------------------------|
A|--------------------------------------------------------|
E|--------------------------------------------------------|



e|--------------------|Go to *Point A* and play to
B|-1------1p0---1-----|*Point B* then continue below
G|-----------------0--|
D|-----0--------------|
A|--------------------|
E|--------------------|


                    *Point C*
                        v
e|--------------------|-----------------------------------|
B|--------------------|-----------2-2---------------------|
G|------------------0-|-----------2-2----------------0----|
D|------------------0-|-----2-2---2-2----------2----------|
A|-3------3---3-----0-|-0-0-----0-0-0-0--3-3-3-----3---0--|
E|-1----0-1-0-1-3-3---|-----------------------------------|
 


e|-------------2--------------------------------0-0------|
B|-------------3--------2-----------------------0-0-0----|
G|-------0-----2--------2-----2-----------------0-0-0----|
D|-------------0--------2-----2--------5-5-5-5--0-0-0----|
A|-2-2-2----------------0-----0----3---3-3-3-3--0-0-x----|
E|----------------------------------------------0---3----|
 |                                                        |
 |              W/Bar                                     |
 |       |----------------|                               |
e|-------------2*-----------------------------------------|<
B|-------------3*-------V2--------------------------------|<
G|-------0*----2*-------V2----------5---------------------|<2nd time
D|-------------0*-------V2----------5---------------------|
            
Submit corrections

comments powered by Disqus
↑ Back to top | Babyshambles Tabs for 8 Dead Boys. Lyrics for acoustic guitar and electric guitar. Tablatures and chords are parodies/interpretations of the original songs. You may use it for private study, scholarship, research or language learning purposes only