» » »

Midnight Rendezvous Ukulele Chords (ver.1)

Artists:  A B C D E F G H I J K L M N O P Q R S T U V W X Y Z # 

Midnight Rendezvous Ukulele Chords (ver.1)

Babys
Rating:
0/5 (0 votes)

Hard to play? Try these video lessons and learn fast.
                Midnight Rendezvous

Standard tuning

Here’s a link to the song



Intro 2x's
                                                           G   A A
E-------0--------------------0------------------0-----------------------|
B-----------------------------------------------------------------------|
G----------7--------------------7------------------7--------------------|
D-------------7--6----------------7--6---------------7-----5---7-7------|
A---------------------7-----------------7------------------5---7-7------|
e-----0----------------------------------------------------3---5-5------|


after the first of each “alright” play it this way

       E   B   D    D         E   
   D   E    D
E------------------------------------------------------|
B------------------------------------------------------|
G------------------------------------------------------|
D-------------------7----------------------9----7------|
A--------------5----5------------------5---7----5------|
e------0---7------------------0---7--------------------|


E                                  D E E E
Driving faster than you want me to
E
Can't help myself when I'm alone with you
Alright   E B D D  E B D 
D
Alright   E E  F# G F# E   EE E

E                                             D E E E
I've passed the limit and there's no way back
E
Your kind of love gives me a heart attack

Alright  E B D D   E B D 
D

      B
Alright
                      C
Cause baby can't you see

                             D
We need to spend some time alone
                                 C
We need to see some dreams come true

                          D
I wanna feel me touching you

                         E
We need a midnight rendezvous

REPEAT INTRO 1x


On the freeway with the throttle down
You drive me crazy as we drive around
Alright
All night
The way you look tonight you aim to please
The dress you're wearin' is way past your knees
Alright
Alright
Cause baby can't you see
We need to spend some time alone
We need to see some dreams come true
I wanna feel you touching me
We need a midnight rendezvous

REPEAT INTRO 2x’s


REPEAT JUST THE PICKING PART OF THE INTRO

Midnight
Midnight rendezvous
Midnight
Midnight rendezvous
Midnight
Midnight rendezvous
Midnight
Midnight rendezvous
 G   A  A
Yeah yeah


Repeat and fade out

E B D E D E     A D

 Play it like this

          E    B   D   E    D   E  
  A    D
E---------------------------------------------|
G---------------------------------------------|
D-------------------------------------14---7--|
A------------------5---7----5---7-----12---5--|
e---------0----7------------------------------|

All I really wanna do
Spend some time alone with you
Yeah
A midnight
(Baby baby can¹t you see)
(Baby baby you and me)
(Baby baby can¹t you see)
(Baby baby you and me)
A midnight rendezvous
Yeah
All I really wanna do
Oh I really wanna f**k you
Oh
Midnight rendezvous
            
Hard to play? Try these video lessons and learn fast. | Correct




comments powered by Disqus
↑ Back to top | Tablatures and chords are parodies/interpretations of the original songs. You may use it for private study, scholarship, research or language learning purposes only