» » »

Babes In Toyland, Swamp Pussy Tabs (ver.1)

Artists:  A B C D E F G H I J K L M N O P Q R S T U V W X Y Z # 

Swamp Pussy Tabs (ver.1)

Babes In Toyland Tabs
 Rating:
4/5 (4 votes)
Swamp Pussy lessons Tabs too difficult? Try these video lessons and learn fast
1
                Babes in toyland are one of the BEST punk band in the world
 
  x air strum/air strum
  ^ Bend string
  /  Slide
 
 Main Riff
E-----------------------
B-----------------------
G-----------------------
D-----------------------
A-14/----2-2-5-5-7-8-8-8
E--------O-O-3-3-5-6-6-6


OO:33
G-2-2--x-x-x-x-x-x---8^-7^-6^-LOW GUITAR PLAYS THESE BENDS	
D-2-2--x-x-x-x-x-x------------(NOT PLAY LIVE)
A-O-O--x-x-x-x-x-x------------
E-----------------------------

OO:41
E------------------------
B------------------------
G------------------------
D------------------------
A--------2-2-5-5-7-8-8-8--
E--------O-O-3-3-5-6-6-6--

OO:48
D---2-2-5-x-x-x-x-x----
A---2-2-5-x-x-x-x-x----
E---O-O-3-x-x-x-x-x-/--  X4
Slide down fret board after four times

OO:56
E------------------------
B------------------------
G------------------------
D------------------------
A--------2-2-5-5-7-8-8-8--
E--------O-O-3-3-5-6-6-6--

O1:11
G-2-2--x-x-x-x-x-x---
D-2-2--x-x-x-x-x-x---
A-O-O--x-x-x-x-x-x---
E--------------------
Play it four times and on the first/last 
time guitar scr*pe it twice as long, 
Then play it four more times and then solo.

Solo
O1:25
E------------------------------------
B------------------------------------
G-15^15-15-15-15-15^14^14-14-14-14-14      
D------------------------------------Bend the G string note's to hell

E-------------------------------------------------------15-15-15-
B---------------------------14-13-12-11----11-9-9--11-9----------
G-14-14^13^13-13-13-13-13^-----------------11-9-9--11-9----------
D----------------------------------------------------------------

O1:40 solo end
E---------------------15-15-15-	
B--11-11-9-9--11-11-9----------
G--11-11-9-9--11-11-9----------
D------------------------------ x 3
play this part four times. But on the last time
don't play 15 three times, just guitar scr*pe to end solo.

O1:41
E------------------------
B------------------------
G------------------------
D------------------------
A--------2-2-5-5-7-8-8-8-
E--------O-O-3-3-5-6-6-6-

O1:54

G-2-2--x-x-x-x-x-x--
D-2-2--x-x-x-x-x-x--
A-O-O--x-x-x-x-x-x--
E-------------------

O2:O1
E------------------------
B------------------------
G------------------------
D------------------------
A--------2-2-5-5-7-8-8-8-
E--------O-O-3-3-5-6-6-6-

O2:16 END
D---2-2-5-x-x-x-x-x----
A---2-2-5-x-x-x-x-x----
E---O-O-3-x-x-x-x-x----
            
Submit corrections

comments powered by Disqus
↑ Back to top | Babes In Toyland Tabs for Swamp Pussy. Lyrics for acoustic guitar and electric guitar. 1 Tablatures and chords are parodies/interpretations of the original songs. You may use it for private study, scholarship, research or language learning purposes only