» » »

Babes In Toyland, Real Eyes Tabs (ver.1)

Artists:  A B C D E F G H I J K L M N O P Q R S T U V W X Y Z # 

Real Eyes Tabs (ver.1)

Babes In Toyland Tabs
Rating:
0/5 (0 votes)
Real Eyes lessons Tabs too difficult? Try these video lessons and learn fast
                ----------------------------------------------------------------------------
                             REALEYES - Babes In Toyland
----------------------------------------------------------------------------
Tuning: Standard

This song is short but sickly-sweet, and super easy. Have fun.

Intro: Not 100%, a bit off... but it sounds a bit like it
e|-------4/16---------|
B|-------5/17---------|
G|---1--------1~------|
D|--2-2-----------2~--|
A|----------------2~--|
E|----------------0~--|
(and just strum and hold that E5 for a few counts)

Verse:
e|-------------------------------------------|
B|-------------------------------------------|
G|-------------------------------------------|
D|--2222-2222-2222-2222-6666-6666-6666-6666--|
A|--2222-2222-2222-2222-6666-6666-6666-6666--|
E|--0000-0000-0000-0000-4444-4444-4444-4444--|

Chorus:
e|---------------------------------------|
B|---------------------------------------|
G|-----------444-4444----------222-2222--|
D|--555-5555-444-4444-444-4444-222-2222--|
A|--555-5555-222-2222-444-4444-000-0000--|
E|--333-3333----------222-2222-----------|

Bridge
e|---------------------------|
B|---------------------------|
G|--------5-555-------3-2----|
D|--2-222-5-555-2-222-3-2-5--|
A|--2-222-3-333-2-222-1-0-5--|
E|--0-000-------0-000-----3--|

End on this:
e|-----------|
B|-----------|
G|--------5--|
D|--2-222-5--|
A|--2-222-3--|
E|--0-000----|

KEY:
 /  slide up
 ~  vibrato

STRUCTURE:
Intro
Verse
Chorus
Verse
Chorus
Bridge
Chorus
Ending progression

============================================================================
            

comments powered by Disqus
↑ Back to top | Babes In Toyland Tabs for Real Eyes. Lyrics for acoustic guitar and electric guitar. Tablatures and chords are parodies/interpretations of the original songs. You may use it for private study, scholarship, research or language learning purposes only