» » »

Handsome And Gretal Bass tabs (ver.1)

Artists:  A B C D E F G H I J K L M N O P Q R S T U V W X Y Z # 

Handsome And Gretal Bass tabs (ver.1)

Babes In Toyland
Rating:
5/5 (1 vote)
Tabs too difficult? Try these video lessons and learn fast.
                BABES IN TOYLAND - HANDSOME & GRETEL

BASS TAB

Hi guys!This is a great song!
My tab sounds pretty good!

/ = slide

intro
verse
chorus
verse
chorus
verse
chorus
bridge X 3
verse

INTRO
G-------------------------------------------------|
D-------------------------------------------------|
A-------------------------------------------------|
E--5/7-7---3-3/5-5/7-7---3-3/5-5/7-7--3-3/5-5/7-7-|

VERSE
G-------------------------------------------------|
D-------------------------------------------------|
A-------------------------------------------------|
E--5/7-7---3-3/5-5/7-7---3-3/5-5/7-7--3-3/5-5/7-7-|

-------------------------------------------------------------|
-------------------------------------------------------------|
-------------------------------------------------------------|
--3-3/5-5/7-7--3-3/5-5/7-7---3-3/5-5/7-7--3-3/5-5/7-7--3-3-3-|

CHORUS
G---------------------------------------------------------|
D---------------------------------------------------------|
A---------------------------------------------------------|
E-0-0-0-0-0-0---0-0-0-0-0-0---0-0-0-0-0-0---0-0-0-0-0-0---|

BRIDGE
G----------------------------------|
D----------------------------------|
A-------------0--------0---0-1-0---|
E-0--2-3-2--3---3--2-3---3-------3-|
            
Tabs too difficult? Try these video lessons and learn fast.


comments powered by Disqus
↑ Back to top | Tablatures and chords are parodies/interpretations of the original songs. You may use it for private study, scholarship, research or language learning purposes only