>
 >
Noc Bez Sna

Noc Bez Sna Guitar Tabs

Babe - Noc Bez Sna chords, tabs, tablatures, lyrics

Guitar lessons | Add/correct | Request | Top 50 tabs Artists:  A B C D E F G H I J K L M N O P Q R S T U V W X Y Z 0-9

Noc Bez Sna Guitar Tabs – Babe

CD, Sheet music, Poster

Do you like Noc Bez Sna? Share with your friends now
Tabs
Pesma pocinje iz G pa prelazi u Em:

Prva gitara:
e|----------------------------|--------------------------------|\
H|-----0----------0h1---0--0--|-------0-----------0h1----0---0-| \
G|--0---------0---------------|--0-----------0-----------------|  \
D|----------------------------|--------------------------------|   \
A|----------------------------|--------------------------------|    \
E|----------------------------|--------------------------------|     |
Druga gitara:						             |
e|----------------------------|--------------------------------|     |
H|-----12-------12h13--12--12-|-------12-------12h13----12--12-|    /
G|-12-------12----------------|--12--------12------------------|   /
D|----------------------------|--------------------------------|  /
A|----------------------------|--------------------------------| /
E|----------------------------|--------------------------------|/

|----------------------------|---------------------------------------------|\
|------0---------0h1---0--0--|-0-------------------------------------------| \
|--0---------0---------------|----2---0------------------------------------|  \ 
|----------------------------|----------4--5---4---2-----------------------|   \
|----------------------------|---------------------------------------------|    |
|---------------------------|----------------------------------------------|    |
					           |Prelaz                      |
|--------------------------|-----------------------|-----------------------|    |
|----12-------12h13-12--12-|-12-10-----------------|-----------------------|    |
|-12------12---------------|-------12-11-12--11--9-|-9---------------------|   /
|--------------------------|-----------------------|---12-9----------------|  /
|--------------------------|-----------------------|--------12-10----------| /
|--------------------------|-----------------------|--------------12-10-12-|/

e|----------------------------|--------------------------------|\
H|-----0----------0h1---0--0--|-------0-----------0h1----0---0-| \
G|--0---------0---------------|--0-----------0-----------------|  \
D|----------------------------|--------------------------------|   \
A|----------------------------|--------------------------------|    \
E|----------------------------|--------------------------------|     |
                    					             |
e|----------------------------|--------------------------------|     |
H|-----12-------12h13--12--12-|-------12-------12h13----12--12-|    /
G|-12-------12----------------|--12--------12------------------|   /
D|----------------------------|--------------------------------|  /
A|----------------------------|--------------------------------| /
E|----------------------------|--------------------------------|/

e|----------------------------|---------------------------------|\
H|-----0----------0h1---0--0--|-------0-----------0h1----0----0-| \
G|--0---------0---------------|--0-----------0------------------|  \
D|----------------------------|---------------------------------|   \
A|----------------------------|---------------------------------|    |
E|----------------------------|---------------------------------|    |
                    		   		                     |
e|----------------------------|---------------------------------|    |
H|-----12-------12h13--12--12-|-1s8-7--3-5-s5--5-3-0------------|    | 
G|-12-------12----------------|-----------------------2-0-------|   /
D|----------------------------|---------------------------2-0-2-|  /
A|----------------------------|---------------------------------| /
E|----------------------------|---------------------------------|/

Kroz strofu se ponavnja prvi motiv:
G    G4 G G     G4  G   G  G4  G  G4 G          Em               
Nocas nisi pored mene, kako zivot mracnom stranom moze da krene
G    G4 G G     G4  G   G  G4  G  G4 G          Em               
Nasa ljubav gubi smisao, samo nemir i u glavi caruje misao

Prelaz:
H|---5h7h8-5----------|
G|------------7-4--2*-|      ->Zvezdica znaci Coda- nota traje mnooogo dugo

D            Em             D              C          Em
  A ti spavas il' si budna ova noc je tako cudna i nestvarna

Refren I(Kao akordi) :
D                 Dsus4 D D2
Ovo je noc bez sna                
F#m              A
A pakla cigareta prazna je
      E          E9
Prazne su ulice

Ispijen sam do dna
I ispocetka mora pocinje 
padam sa stolice

Ref II:
G        D
Ti si me zavela, 
Hm      Fm     
Bio sam srecan pre tebe ja
A     Asus4 A  A7 A A7     A     Asus2 A  A7 A A7 
Dok me nisi, Dok me nisi, Dok me nisi, nisi aaaaaa

Do ludila dovela kako da sacuvam zivot taj
Solo:
e|-12-12-12-12--10-10-10-10-------|
H|--------------------------12-12-|
G|--------------------------------|
D|--------------------------------|

e|-------------------------------------|
H|-12-10-------12-10-----12-10---------|
G|------12-----------12--------12------|
D|-------------------------------------|


e|-------------------------------------|
H|------------------------10-10-10-10--|
G|-12--10-----12--10-------------------|
D|---------13----------13--------------|
Reci

Nocas nisi pored mene, kako zivot mracnom stranom moze da krene
Nasa ljubav gubi smisao, samo nemir i u glavi caruje misao
A ti spavas il' si budna ova noc je tako cudna i nestvarna

Strah od tuge i samoce mozak nece ali moje srce te hoce
I tablete za smirenje, puna saka dal' je doza dovoljno jaka
A ti spavas il' si budna ova noc je tako cudna i nestvarna

Ovo je noc bez sna,
a pakla cigareta prazna je
Prazne su ulice
Ispijen sam do dna
I ispocetka mora pocinje 
padam sa stolice

Prvi put:
Ti si me zavela, 
Bio sam srecan pre tebe ja
Dok me nisi, Dok me nisi, 
Dok me nisi, nisi aaaaaa
Do ludila dovela 
kako da sacuvam zivot taj

Drugi put:
Sada si najlepsa,
a vise nisi moja
Nisi moja, Vise moja
Nisi vise moja aaa
Ja nisam nikada 
voleo noc bez boja
Tvoje kose, Tvoga lica
Ociju i usanaa





Comments


Popular Babe tabs & chords
Cesemo Se Tabs
Ko Me Tero Tabs
Novogodisnja Pesma Tabs
Piksla Od Kristala Tabs
Slanina Tabs


Song lyrics



↑ Back to top | Tablatures and chords are parodies/interpretations of the original songs. You may use it for private study, scholarship, research or language learning purposes only
© 2014 AZChords.com Contact us | Privacy policy | DMCA | Add/correct tabs | Request tabs | Top 50 tabs