>
 >
Su Siervo

Su Siervo Guitar Tabs

Babasonicos - Su Siervo chords, tabs, tablatures, lyrics

Guitar lessons | Add/correct | Request | Top 50 tabs Artists:  A B C D E F G H I J K L M N O P Q R S T U V W X Y Z 0-9

Su Siervo Guitar Tabs – Babasonicos

CD, Sheet music, Poster

Do you like Su Siervo? Share with your friends now
Tabs

Intro:

riff:1
e|--------------------------------------------------------------------------|
B|--------------------------------------------------------------------------|
G|--------------------------------7-/-8---7------7-----------------5--------|
D|----5-/-7---------5-/-7----(0)--7-/-8---7------7(0)--5-5-x-5-5---5--7-7-7-|
A|(0)-5-/-7-----(0)-5-/-7-----0---5-/-6---5------5-0---5-5-x-5-5---3--7-7-7-|
E|-0--3-/-5------0--3-/-7------------------------------3-3-x-3-3-0----5-5-5-|

riff:2

e|--------------------------------------------------------------------------|
B|--------------------------------------------------------------------------|
G|--------------------------------7-/-8---7------7-----------------5--------|
D|----5-/-7---------5-/-7----(0)--7-/-8---7------7(0)--5-5-x-5-5---5--------|
A|(0)-5-/-7-----(0)-5-/-7-----0---5-/-6---5------5-0---5-5-x-5-5---3--------|
E|-0--3-/-5------0--3-/-7------------------------------3-3-x-3-3-0----------|


e|---------------|
B|---------------|
G|---------------|
D|-3-3-x--5------|
A|-3-3-x--5------|
E|-1-1-x--3------|

riff: 3

e|--------------------------------------------------------------------------|
B|--------------------------------------------------------------------------|
G|--------------------------------------------------------------------------|
D|--7-x-x-7-x-x-7------5-5-x--5---5-------------------------3-3---3-5-------|repetir
A|--7-x-x-7-x-x-7------5-5-x--5---5-----4-x-x-4-x-x 4-4-----3-3---3-5-------|
E|--5-x-x-5-x-x-5--0-0-3-3-x--3---3--0--2-x-x-2-x-x-2-2-----1-1-0-1-3-------|

riff : 4                                                             ) )
                                                                  / / \  full
e|--------------------------------------------------------------------------|
B|(0)--------------------------------------------------------------5--------|
G|-2------------------------------------------------2-----------3/5--5/4/3h2|
D|-2--2------2-2/3-2-2/3-2----3-3----3---3---3-5----2--2--2--2/3------------|
A|-0--------------------------3-3----3---3---3-5----0-----------------------|
E|--------------------------0-1-1--0-1-0-1-0-1-3----------------------------|


e|----------------|
B|----------------|
G|-2-1/2-1/2-1/2--|
D|----------------|
A|----------------|
E|----------------|

riff: 5

e|--------------------------------------------------------------------------|
B|--------------------------------------------------------------------------|
G|--------------------------------------------------------------------------|
D|--7-x-x-5-x-x-7-x-x-5-x-x-7-7---3-x-x-3-x-x-3-x-x-3-x-x-3-x-5-------------|
A|--7-x-x-5-x-x-7-x-x-5-x-x-7-7---3-x-x-3-x-x-3-x-x-3-x-x-3-x-5-------------|
E|--5-x-x-3-x-x-5-x-x-3-x-x-5-5---1-x-x-1-x-x-1-x-x-1-x-x-1-x-3-------------|


e|--------------------------------------------------------------------------|
B|--------------------------------------------------------------------------|
G|--------------------------------------------------------------------------|
D|--7-x-x-5-x-x-7-x-x-5-x-x-7-5---3-----------------------------------------|
A|--7-x-x-5-x-x-7-x-x-5-x-x-7-5---3-----------------------------------------|
E|--5-x-x-3-x-x-5-x-x-3-x-x-5-3---1-----------------------------------------|


riff : 6


e|--------------------------------------------------------------------------|
B|--------------------------------------------------------------------------|
G|--------------------------------------------------------------------------|
D|-2-2-2-2--5-5---3-3-3-5-3-3---2-2-2-2--5-5---3-3-3-5-7-7---2-2-2-2--5-5---|
A|-2-2-2-2--5-5---3-3-3-5-3-3---2-2-2-2--5-5---3-3-3-5-7-7---2-2-2-2--5-5---|
E|-0-0-0-0--3-3-0-1-1-1-3-1-1---0-0-0-0--3-3-0-1-1-1-3-5-5---0-0-0-0--3-3-0-|

e|--------------------------------------------------------------------------|
B|--------------------------------------------------------------------------|
G|--------------------------------------------------------------------------|
D|-3-3-3-5-3-3---2-2-2-2--5-5---3-3-3-5-------------------------------------|
A|-3-3-3-5-3-3---2-2-2-2--5-5---3-3-3-5-------------------------------------|
E|-1-1-1-3-1-1---0-0-0-0--3-3-0-1-1-1-3-------------------------------------|


riff : 8

e|--------------------------------------------------------------------------|
B|(0)-----------------------------------------------------------------------|
G|-2------------------------------------------------2-----------------------|
D|-2--2------2-2/3-2-2/3-2----3-3----3---3---3-5----2--2--2-2/3-2-2/3-2-----|
A|-0--------------------------3-3----3---3---3-5----0-----------------------|
E|--------------------------0-1-1--0-1-0-1-0-1-3----------------------------|

    ~~~~ vibrar
e|--------------------------------------------------------------------------|
B|--------------------------------------------------------------------------|
G|--2-2---2-0---------------------------------------------------------------|
D|-------------3-0----------------------------------------------------------|
A|--------------------------------------------------------------------------|
E|--------------------------------------------------------------------------|





Comments


Popular Babasonicos tabs & chords
Bien Chords
CarismáTico Chords
Charada Chords
Bien Tabs
Bien 1 Tabs
Chicos En El Pasto 1 Tabs
El Loco Tabs
Mareo Tabs
Natural 1 Tabs
Puesto Ukulele


Song lyrics



↑ Back to top | Tablatures and chords are parodies/interpretations of the original songs. You may use it for private study, scholarship, research or language learning purposes only
© 2014 AZChords.com Contact us | Privacy policy | DMCA | Add/correct tabs | Request tabs | Top 50 tabs