>
 >
Ciegos Por El Diezmo

Ciegos Por El Diezmo Guitar Tabs

Babasonicos - Ciegos Por El Diezmo chords, tabs, tablatures, lyrics

Guitar lessons | Add/correct | Request | Top 50 tabs Artists:  A B C D E F G H I J K L M N O P Q R S T U V W X Y Z 0-9

Ciegos Por El Diezmo Guitar Tabs – Babasonicos

CD, Sheet music, Poster

Do you like Ciegos Por El Diezmo? Share with your friends now
Tabs
Intro:
e|------------------------------|
B|------------------------------|
G|----------------2-------------| x4
D|------------------0-2-2-0-----|
A|--0---3-0-3-0-3------------3--|
E|------------------------------|

despues sigue asi:
    A A  C A C  D
e|---------------------------|
B|---------------------------|
G|--------------2------------|Esto se hace
D|--2-2--2-2-2--0------------|rapido x4
A|--0-0--3-0-3---------------|
E|---------------------------|



Verso:

e|----------------------------------|
B|----------------------------------|
G|--------------2-----------------2-|
D|--2-2--2-2-2--0-----2-2--2-2-2--0-|
A|--0-0--3-0-3--------0-0--3-0-3----|
E|----------------------------------|
    A A  C A C  D     A A  C A C  D
    Sobre el arcoiris un pastel de boludos

e|----------------------------------|
B|----------------------------------|
G|--------------2-----------------2-|
D|--2-2--2-2-2--0-----2-2--2-2-2--0-|
A|--0-0--3-0-3--------0-0--3-0-3----|
E|----------------------------------|
    A A  C A C  D     A A  C A C  D
    se arrastran robando lo que otros desprecian



Estribillo:

e|---------------------------|
B|---------------------------|
G|---------------------------|
D|-(9)---------------9--7----|
A|-(7)---------------7--5----|
E|---------------------------|
   E5                E5 D5
   Se lo que nadie quiere

e|----------------------------------------------------|
B|----------------------------------------------------|
G|---------------------------------2------------------| x2
D|------------------------------------0-2-2-0---------|
A|------------------0---3-0-3-0-3-------------3-------|
E|----------------------------------------------------|
                    Intro
voy a empezar a juntar



Verso:

e|----------------------------------|
B|----------------------------------|
G|----------------------------------|
D|----------------------------------|
A|----------------------------------|
E|----------------------------------|
    A A  C A C  D     A A  C A C  D
    Raya al orizonte un trope de cornudos

e|----------------------------------|
B|----------------------------------|
G|----------------------------------|
D|----------------------------------|
A|----------------------------------|
E|----------------------------------|
    A A  C A C  D     A A  C A C  D
    buscan convencer a lentos de un tonto plan



Estribillo:

e|----------------------------|
B|----------------------------|
G|----------------------------|
D|----------------------------|
A|----------------------------|
E|----------------------------|
   E5                E5  D5
   Se lo que nadie quiere


e|--------------------7-5---------------7-5------------------|
B|-------------------------7-5--------------7-5--------------|
G|------------------------------7-5-7-----------7--5h7h5-----|
D|-----------------------------------------------------------|
A|-----------------------------------------------------------|
E|-----------------------------------------------------------|
                      A A  C A C  D     A A  C A C  D
voy a empezar a juntar           voy aempezar a juntar


e|----------------------------|
B|----------------------------|
G|-(9)---------------9---7----|
D|-(9)---------------9---7----|
A|-(7)---------------7---5----|
E|----------------------------|
   E5                E5  D5
   Se lo que nadie quiere


e|--------------------7-5---------------7-5------------------|
B|-------------------------7-5--------------7-5--------------|
G|------------------------------7-5-7-----------7--5h7h5-----|
D|-----------------------------------------------------------|
A|-----------------------------------------------------------|
E|-----------------------------------------------------------|
                      A A  C A C  D     A A  C A C  D
voy a empezar a juntar

e|----------------------------|
B|--9---9---9---9-------------|
G|----9---9---9---9-----------|
D|-------------------9---7----|
A|-------------------7---5----|
E|----------------------------|
   E5                E5  D5
   Eso lo que nadie quiere



Estribillo:

e|------------------------------|
B|------------------------------|
G|----------------2-------------|
D|------------------0-2-2-0-----|
A|--0---3-0-3-0-3------------3--|
E|------------------------------|
voy a empezar a juntar

e|------------------------------|
B|------------------------------|
G|----------------2-------------|
D|------------------0-2-2-0-----|
A|--0---3-0-3-0-3------------3--|
E|------------------------------|
voy a empezar a juntar

e|------------------------------|
B|------------------------------|
G|----------------2-------------|
D|------------------0-2-2-0-----|
A|--0---3-0-3-0-3------------3--|
E|------------------------------|
voy a empezar a juntar

e|----------------------------------------|
B|----------------------------------------|
G|----------------2-----------------------|
D|------------------0-2-2-0---------------|
A|--0---3-0-3-0-3------------3----5-5-5---|
E|--------------------------------3-3-3---|
voy a empezar a juntar



Solo:
e|------------------------------|
B|------------------------------|
G|----------------2-------------| x3
D|------------------0-2-2-0-----|
A|--0---3-0-3-0-3------------3--|
E|------------------------------|

e|----------------------------------------|
B|----------------------------------------|
G|----------------2-----------------------| x1
D|------------------0-2-2-0---------------|
A|--0---3-0-3-0-3------------3----5-5-5---|
E|--------------------------------3-3-3---|



Estribillo:

   A  A  A  A  A  A  A  C  C  C  C  C
e|-------------------------------------|
B|-------------------------------------|
G|-------------------------------------| <-|
D|-----------------5-5-5-5-5-5-5-5-----|   |______
A|-7-7-7-7-7-7-7-7-3-3-3-3-3-3-3-3-----|         |
E|-5-5-5-5-5-5-5-5---------------------|         |
  Yo se muy bien lo que nadie quiere             |
                                                 |--> todo esto
   D  D  D  D  D  D  D  D  D                     |    se repite
e|-------------------------------------|         |    por 4
B|-------------------------------------|    _____|
G|-------------------------------------|   |
D|-7-7-7-7-7-7-7-7----(8)--------------| <-|
A|-5-5-5-5-5-5-5-5----(6)-----5-5-5----|
E|----------------------------3-3-3----|
  oohuuuoo oohuuoo ohhuoo ooh





Comments


Popular Babasonicos tabs & chords
Como Eran Las Cosas 2 Bass Tabs
El Colmo Chords
Puesto Chords
Bien Tabs
Camarin Tabs
Natural 1 Tabs
Pijamas Tabs
Y Que Tabs
Bien Ukulele
Natural Ukulele


Song lyrics



↑ Back to top | Tablatures and chords are parodies/interpretations of the original songs. You may use it for private study, scholarship, research or language learning purposes only
© 2014 AZChords.com Contact us | Privacy policy | DMCA | Add/correct tabs | Request tabs | Top 50 tabs