» » »

Love Shack Bass tabs (ver.1)

Artists:  A B C D E F G H I J K L M N O P Q R S T U V W X Y Z # 

Love Shack Bass tabs (ver.1)

B 52s
Rating:
0/5 (0 votes)

Hard to play? Try these video lessons and learn fast.
                Verses

G-------------------------------------------------
D-------------------------------------------------
A----3-3-3----------------------------------------
D-----------3--4--5---5--8--5---8-----------------

Chorus

G------------------------------------------------------------------------------
D------------------------------------------------------------------------------
A-----3333333-------6666666-----8888888----11-11-11-11-11-11-11---------------
D----------------------------------------------------------------------------


There is a little variation, such as 

G-------------------------------------------------
D-------------------------------------------------
A-----1---1-3-------------------------------------
D-------------------------------------------------
For a short point during the verse 

And 

G------------------------------------------------
D------------------------------------------------
A--1h3-3-----------------------------------------
D----------3--4--5---77--88--99---10------------
At the end of the chorus


This is 100% correct, in the sense that it works.
            
Hard to play? Try these video lessons and learn fast. | Correct




comments powered by Disqus
↑ Back to top | Tablatures and chords are parodies/interpretations of the original songs. You may use it for private study, scholarship, research or language learning purposes only