» » »

Azra, Voljela Me Nije Nijedna Bass tabs (ver.1)

Artists:  A B C D E F G H I J K L M N O P Q R S T U V W X Y Z # 

Voljela Me Nije Nijedna Bass tabs (ver.1)

Azra Tabs
Rating:
0/5 (0 votes)
Hard to play? Try these video lessons and learn fast.
                Azra - Voljela me nije nijedna

OK, posto je snimak losiji tj. da se ne vidi kako sviram, kacim tab.

Bass krece negde oko 0:06


G-------------------------------------------------------| (4x)
D-------------------------------------------------------|
A--7-7----7-5----5--------------                 <------|RIFF1
E--------------7----------------------------------------|

G---------------------------------------------------------------------------|
D----------------------------------------------------------------    <------|RIFF2(REFREN)
A--7-7----7-5-----5-------------3-5-5--5-3---5---7-7--7-5----5--------------|
E--------------7-----5-5--5-3-5------------5---------------7----------------|


RIFF1(4X)

G----------------------------------------------------------------------------------|(2X)
D-----------------------------------------7-7-7-5--5-------------------------------|
A-7-7----7-5----5-7-7----3--5-5-5-3---3-----------7-----------------         <-----|RIFF3
E-------------7--------5------------5----------------------------------------------|

RIFF2


G-----------------------------------------------------------------------------------|
D-----------------------------------------------------------------------------------|
A--7-7----7-5-----5-------------3-5-5---5-3---3-5-5---5-3---5-----           <------|RIFF4
E--------------7-----5-5--5-3-5-------------5-------------5-------------------------|

RIFF1(4X)

RIFF3(2X)

RIFF2

RIFF4

RIFF2(2X)

RIFF1(4X)

RIFF3(2X)

RIFF2(3X)

RIFF4

RIFF1(4X)

G---------------------------------------------------------------------|
D-----------------------------------------9-7-5-----------------------|
A--7--5-7-----7--55-7----7--5-7--777777---------7--7-5----5--   <-----|RIFF5
E-------------------------------------------------------7-------------|

RIFF2(3X)

G-----------------------------------|
D-----------------------------------|
A--7-7----7-5-----5-----------5-----|
E--------------7-----5-5--5-3---3---|


G----------------------------------------------------------------|
D----------------------------------------------------------------|
A--7-7----7-5------7-5----------567--7----------------------- <--|KRAJ(doduse ovako ga ja sviram)
E--------------7-5-----7-5--567------0---------------------------|



Za moj video, pogledajte:



Nadam se da je to to, ali svi komentari su dobro dosli na e-mail adresu! :)
            

comments powered by Disqus
↑ Back to top | Azra Bass for Voljela Me Nije Nijedna. Lyrics for acoustic guitar and electric guitar. Tablatures and chords are parodies/interpretations of the original songs. You may use it for private study, scholarship, research or language learning purposes only