» » »

Sumadijski Bluz Tabs (ver.1)

Artists:  A B C D E F G H I J K L M N O P Q R S T U V W X Y Z # 

Sumadijski Bluz Tabs (ver.1)

Azra
Rating:
0/5 (0 votes)

Hard to play? Try these video lessons and learn fast.
                  INTRO:

                    Cm7
-|--------------11x-|-----------------|-----------------------------|---------|
-|--8--11br8--------|--8v-------------|--11-11-11-10----------------|---------|
-|-----------10-----|-----------------|--------------10br8----------|---------|
-|------------------|-----------------|--------------------10-10-10v|-------8-|
-|------------------|-----------------|-----------------------------|---------|
-|------------------|-----------------|-----------------------------|---------|

          Fm7                            Cm7
-----------------|----------------------------------|-------------------------|
-----------------|-----------8-11-------------------|--------11-13-13b-13-11--|
------8-7--------|-8rb------------10b-10-8-10-------|--8\---------------------|
-8-10-----10-----|----------------------------8-10v-|-------------------------|
-----------------|----------------------------------|-------------------------|
-----------------|----------------------------------|-------------------------|

Gm7                                               Fm7
-----------|-------------------------------------|----------------------------|
-13-11-----|-------------------------------------|---------------8-8-11-8-----|
-------12v-|-8-10------------------8-10----------|---------8-10b--------------|
-----------|------8-10-------8h10-------8-10-----|----8-10--------------------|
-----------|-----------8h10------------------8brv|-10-------------------------|
-----------|-------------------------------------|----------------------------|

                    Cm7                         Gm7
---------------|------------10v-11-13-13br-p-11-13b-|--14\13-11-13br-p-11-13--|
-11v--8--------|-8x-11v-13v-------------------------|-------------------------|
--------10br-8-|------------------------------------|-------------------------|
---------------|------------------------------------|-------------------------|
---------------|------------------------------------|-------------------------|
---------------|------------------------------------|-------------------------|


-11----|----------------------|-----------------------------------------------|
----13-|--12-11---------11\---|-----------------------------------------------|
-------|--------12v-----------|-----------------------------------------------|
-------|----------------------|-----------------------------------------------|
-------|----------------------|-----------------------------------------------|
-------|----------------------|-----------------------------------------------|


Cm7
Oooo, kako ste ljudi moji,

jedna soba, drugi svet.
Fm7
Ja sam sam u svojoj coji(?),
Cm7
gledam tudji truo cvet.


      Eb  B  G#
Poklonio bih zivot,
Eb  B      G#    G
da predjem stari most(???).


Cm7
Sanjao sam zutu dunju,

zemlju moju zelen gaj.
Fm7
Video sam sjajnu munju,
Cm7
stari dalek zavicaj.


        Eb   B       G#
Neko mi tad pridje i rece,
Eb   B  G#    G
strance dobro vece.


Cm7
Imas lepa kola strance,

sigurno si srecan ti.
Fm7
A, ja uplakan rekoh jadan,
Cm7
dajem je za tvoj jedan dan.


       Eb B  G#
A onda poce bluz,
       Eb B   G#
moja sumadija peva,
  G
o sreci.
            
Hard to play? Try these video lessons and learn fast. | Correct




comments powered by Disqus
↑ Back to top | Tablatures and chords are parodies/interpretations of the original songs. You may use it for private study, scholarship, research or language learning purposes only