» » »

Mon Ami Tabs (ver.1)

Artists:  A B C D E F G H I J K L M N O P Q R S T U V W X Y Z # 

Mon Ami Tabs (ver.1)

Azra
Rating:
0/5 (0 votes)

Hard to play? Try these video lessons and learn fast.
                Azra - Mon Ami

--------------------------------|
--------------------------------|
--------------------------------|
---4-5-7-5-4------------7-5-4---|
--5---------5-7-5-7-----------5-| D chord
-------------------3-5----------|

--------------------------------|
--------------------------------|
--------------------------------|
---4-5-7-5-4--------------------|
--5---------5-7-----5------5----| D chord
---------------3-5----5--7------|

--------------------------------|
--------------------------------|
--------------------------------|
---4-5-7-5-4------------7-5-4---|
--5---------5-7-5-7-----------5-| D chord, G, A
-------------------3-5----------|

D                              G
kakav je slučaj biti rođen na istoku ne znam
ali osjećam se upravo tako
kakav je slučaj biti rupa na palubi ne znam
moj osjećaj je beskrajna samoća
kakav je osjećaj biti obojena slika
izložena na saint germain des pres
slučaj
mon ami
sjedeći dugo na obali
mon ami
sjedeći na obali
mon ami
tražio sam vezu s tobom

i kako to da povorke ljudi čudnih sudbina
nikad poražene nečim
što nije strah ljubav ili bijes
ili možda ljepota naslaganih godina
mirno plove između klošara
živeći u prošlosti
slučaj
mon ami
iza osvijetljenih lađa

i kako to da drveni podovi tako obično škripe
dok se neko sprema na odlazak po kiši
i kako to da su suze stvarne
i tihe i uporne i mazne i ljepljive
baš kao i žena poslije rastanka
kad ostane sama
slučaj
mon ami
sve su to naslagane godine
iza osvijetljenih lađa
            
Hard to play? Try these video lessons and learn fast. | Correct




comments powered by Disqus
↑ Back to top | Tablatures and chords are parodies/interpretations of the original songs. You may use it for private study, scholarship, research or language learning purposes only