» » »

Ladja Bez Dna Tabs (ver.1)

Artists:  A B C D E F G H I J K L M N O P Q R S T U V W X Y Z # 

Ladja Bez Dna Tabs (ver.1)

Azra
Rating:
0/5 (0 votes)

Hard to play? Try these video lessons and learn fast.
                Uvodni solo:
e----------------------------------------|
H----------------------------------------|
G--------11---9---11--9------------------|
D-----9---------9--------9--11--9--7--4--|
A--11------------------------------------|
E----------------------------------------|
 drugi dio:
e----------------------------------------|
H----------------------------------------|
G-------11---9---11---9-----------9--8---|
D-----9--------9---------9--11--9--------|
A--11------------------------------------|
E----------------------------------------|

F#m
Disidenti
B
konfidenti
E        C#m
snaga ulice
F#m         B         A  B
mnogi bi se poveli za njom
F#m       B               E        C#m
moguce da samo svijetlost ima granice
A       B
a onda lom.

Ref:
       E
Nakon rada
        C#m       F#m     B
svakog dana ja se pomolim da
     E          C#m
ne potone moja nada
    F#m       B
kao ladja bez dna.

Njen me pogled striktno prati
ispod obrve
ja se trudim da mu umaknem
zadnji otpor
mjesto gdje me cuva kamenje
ah kakav san.

Ref.

Solo.   ----uvodni solo isti----

Ljudi vole katastrofe
to ih zblizuje
spominjanje budi korijene
nesto sl*tim
nije moje da se namecem
the rain's gonna fall.

Ref.   2x

Ladja bez dna, ladja bez dna...
            
Hard to play? Try these video lessons and learn fast. | Correct




comments powered by Disqus
↑ Back to top | Tablatures and chords are parodies/interpretations of the original songs. You may use it for private study, scholarship, research or language learning purposes only