» » »

Azra, Krvava Meri Tabs (ver.1)

Artists:  A B C D E F G H I J K L M N O P Q R S T U V W X Y Z # 

Krvava Meri Tabs (ver.1)

Azra Tabs
 Rating:
4.2/5 (5 votes)
Krvava Meri lessons Tabs too difficult? Try these video lessons and learn fast
                                            Azra - Krvava Meri

Pesma je veoma raznovrsna!
Intro se sastoji od tri pocetna akorda:
Intro:

E|-------0------|-------0-------|-------0-------|
B|-------3------|-------3-------|-------5-------|
G|-------2------|-------3-------|-------5-------|
D|-------0------|-------0-------|-------0-------|
A|--------------|---------------|---------------|
E|--------------|---------------|---------------|


Zatim ide vokal i deo koji se ponavlja:
Strofa:
Danas na liniji nekadasnjoj 43...

E|------------------------------------------------------|
B|------------------------------------------------------|
G|------------------------------0-----------------------|   4X
D|----------------3-----------0--------3--2---0---------|
A|--------------------2\3-------------------------------|
E|------------3-----------------------------------------|

A onda ide deo:
Ref.:
Zvali su je-ee krvava meri...
(brzi deo)

E|--------------------------------------------|-------------------------|
B|--------------------------------------------|-------------------------|
G|-----------------------------5--------------|---------------7---------|
D|----------5------------------5------5-------|---5-----------7---------|
A|----------5 (8X odprilike)---3------5-------|---5 (8x)------5---------|
E|----------3-------------------------3-------|---3---------------------|

pa onda ponovo samo sa drugacijim zavrsetkom:

E|--------------------------------------------|--------------|---0-----0--|
B|--------------------------------------------|--------------|---3-----5--|
G|-----------------------------5--------------|----5------7--|---3-----5--|
D|----------5------------------5------5-------|----5------7--|---0-----0--|
A|----------5 (8X odprilike)---3------5-------|----3------5--|------------|
E|----------3-------------------------3-------|--------------|------------|


Zatim ponovo ide strofa i ref...
onda ide taj most bez vokala:
Most:

E|------------------------------------------------------|
B|------------------------------------------------------|
G|--------------0---------------0-----------------------|   4X
D|----------------3-----------0--------3--2---0---------|
A|--------------------2\3-------------------------------|
E|------------3-----------------------------------------|
Sada uhvatite akord D7(kao C samo sa dodatim 4 prstom na 5 pragu 3 zice i pomeren do 5 praga)
E|---------------------------------------------|
B|--------------3-----------------3------------|
G|-----------0------5----0---0------5----------|   4X
D|---------4---------------4---4---------------|
A|------5--------------------------------------|
E|---------------------------------------------|

Strofa

Ref.

Most

Strofa

Ref.
            
Submit corrections

comments powered by Disqus
↑ Back to top | Azra Tabs for Krvava Meri. Lyrics for acoustic guitar and electric guitar. Tablatures and chords are parodies/interpretations of the original songs. You may use it for private study, scholarship, research or language learning purposes only