» » »

Azra, Gracija Bass tabs (ver.1)

Artists:  A B C D E F G H I J K L M N O P Q R S T U V W X Y Z # 

Gracija Bass tabs (ver.1)

Azra Tabs
Rating:
0/5 (0 votes)
Hard to play? Try these video lessons and learn fast.
                Tablature: Bass

for suggestions

verse
G|-----------------|-----------------|
D|-----------------|-----------------|
A|--3--------2--3--|-----------------|
E|-----------------|--3--------2--3--|
..neskladu         ..sna


G|-----------------|-----------------|
D|-----------------|-----------------|
A|--3--------2--3--|-----------------|
E|-----------------|--3--------2--3--|
..prolazu          ..nas



verse 2
G|-----------------|-----------------|
D|-----------------|-----------------|
A|--5--------3--5--|-----------------|
E|-----------------|--3--------2--3--|
..sobom            ..znas


G|-----------------|-----------------|
D|-----------------|-----------------|
A|--5--------3--5--|-----------------|
E|-----------------|--3--------2--3--|
..sobom          ..gracija



verse
G|-----------------|-----------------|
D|-----------------|-----------------|
A|--3--------2--3--|-----------------|
E|-----------------|--3--------2--3--|
..slobodna         ..u to


G|-----------------|-----------------|
D|-----------------|-----------------|
A|--3--------2--3--|-----------------|
E|-----------------|--3--------2--3--|
..odsjaju         ..pogledom



verse 2
G|-----------------|-----------------|
D|-----------------|-----------------|
A|--5--------3--5--|-----------------|
E|-----------------|--3--------2--3--|
..sobom            ..znas


G|-----------------|-----------------|
D|-----------------|-----------------|
A|--5--------3--5--|-----------------|
E|-----------------|--3--------2--3--|
..sobom          ..gracija


ref
G|------------------------------------------------------|
D|------------------------------------------------------|      (2x)
A|--1-1-1-1-1-1---------------5-5-5-5-5-5--3-3-3-3-3-3--|    
E|---------------3-3-3-3-3-3----------------------------|
jos uvijek te    volim           dali to      znas


G|----------------------------|
D|----------------------------|  (2x)
A|--5-5-5-5-5-5--3-3-3-3-3-3--|  
E|----------------------------|
   dali to       znas 


G|---------------------------------------------------------------------------|
D|---------------------------------------------------------------------------|
A|--5-5-5-5-5-5--------------------------------------------------------------| 
E|-------------------1-3-3-3-3-3-3---------1-/-3----1-/-3----1-/-3----1--/3--|
    dali to        znaaaaaahhaaas


verse
G|-----------------|-----------------|
D|-----------------|-----------------|
A|--3--------2--3--|-----------------|
E|-----------------|--3--------2--3--|
..koraku           ..hod


G|-----------------|-----------------|
D|-----------------|-----------------|
A|--3--------2--3--|-----------------|
E|-----------------|--3--------2--3--|
..zapitkujes     ..osmijehom



verse 2

AZRA the best band of Ex-Jugoslawia!!!!
            

comments powered by Disqus
↑ Back to top | Azra Bass for Gracija. Lyrics for acoustic guitar and electric guitar. Tablatures and chords are parodies/interpretations of the original songs. You may use it for private study, scholarship, research or language learning purposes only