» » »

Filigranski Plocnici Tabs (ver.1)

Artists:  A B C D E F G H I J K L M N O P Q R S T U V W X Y Z # 

Filigranski Plocnici Tabs (ver.1)

Azra
Rating:
0/5 (0 votes)

Hard to play? Try these video lessons and learn fast.
                INTRO: 
E|----------------------------
H|----------------------------
G|----1--2-1----0-1-2-1-0----- (3x), pa  D  A  E
D|-2--------2-------------2---
A|----------------------------
E|----------------------------

E|-------------------5----7---5---2---4--4-
H|---0---0---0---0---5----7---5---3---5--5-
G|-------------------6----8---6---2---4--4-(2x), 
D|-2---2---2---2---------------------------pa D A E
A|-----------------------------------------
E|-----------------------------------------


        E
Ja sam kralj
A              E
Sudbina je metresa
A                  E
Sa zastakljenim ocima
D      A          E
Upravo prelazi ulicu
A              E
Ponekad je osjetim
A                 E
Na vrhovima prstiju
D           A
Grobnica za Borisa
E
Covjece

D    A       E
Ako zelis da saznas
D     A      E
Pristani na sve
Ako zelis da mijenjas ljude
Ne odmeci se

Ja sam kralj
Ti si zena pjesnika
Zasto places gospodo
Peludna groznica
Covjece

Ako zelis da saznas
Pristani na sve
Ako zelis da mijenjas ljude
Ne odmeci se

A           E
Filigranski plocnici
Puni baruta
Filigranski plocnici
  D       A   E
Usta puna baruta
            
Hard to play? Try these video lessons and learn fast. | Correct




comments powered by Disqus
↑ Back to top | Tablatures and chords are parodies/interpretations of the original songs. You may use it for private study, scholarship, research or language learning purposes only