» » »

Azra, Balkan Tabs (ver.1)

Artists:  A B C D E F G H I J K L M N O P Q R S T U V W X Y Z # 

Balkan Tabs (ver.1)

Azra Tabs
 Rating:
4.2/5 (5 votes)
Balkan lessons Tabs too difficult? Try these video lessons and learn fast
1
                "G           Am          C         Em
Jednog dana nema me, da nikada ne dodjem,
G          Am            C            Em
prijatelje koje znam, ne poznajem kad prodjem.

Kao da me nikada, na svijetu nije bilo,
kao da me njezino, tijelo nije htilo,

Moja pjesma miruje, a furala bi furke,
lijepe dekle moderne, ne padaju na zurke.

Brijem bradu, brkove, da licim na "pankrte",
jos da imam fendera, vidio bih svirke.

G        Am       C       Em
Balkane, Balkane, Balkane moj,
G       Am       C        Em
budi mi silan, i dobro mi stoj!

Mi smo ljudi, Cigani, sudbinom prokleti,
uvijek neko oko nas dodje pa nam prijeti.

Ni bendovi nisu vise, kao sto su bili,
i moj se amaterski priprema da snimi.

Balkane, Balkane, Balkane moj,
budi mi silan i dobro mi stoj!

Solo 1 (na violini; preradjeno za gitaru)

 Hammer-i mogu a i ne moraju da se sviraju..kako se kome svidja

e||-----------------10---------------------------------------10--10--------|
B||---------10--12------10h12--10-----------------10--10b12----------12--10|
G||--9--12-------------------------12--9--12--12---------------------------|
D||------------------------------------------------------------------------|
A||------------------------------------------------------------------------|
E||------------------------------------------------------------------------|

e||------------------------------------------------------------------------|
B||------------------------------------------------------------------------|
G||12--9--12--9h12-9h12--12-12------9-9--9------------12-------12-------14-|
D||-----------------------------12----------12--12h14----12h14----12h14----|
A||------------------------------------------------------------------------|
E||------------------------------------------------------------------------|

e||---------------------------------------------------------10-12-12-(12)--|
B||-------------------------------------------------(10)-12----------------|
G||------12-------12------(12)------12h14-14-14--14------------------------|
D||12h14----12h14----12h14----12h14----------------------------------------|
A||------------------------------------------------------------------------|
E||------------------------------------------------------------------------|

e||12(r10)-----------------------------------10h12-12-10h12-12-10h12-12----|
B||--------12-10-----------------------------------------------------------|
G||--------------12--9(h12)-12-12----9-9--9--------------------------------|
D||-------------------------------12---------------------------------------|
A||------------------------------------------------------------------------|
E||------------------------------------------------------------------------|

E||10h12-12-10h12-12-10h12-12-10h12-12-10h12-12-15--15-15-15--12h15-15-----|
B||------------------------------------------------------------------------|
G||------------------------------------------------------------------------|
D||------------------------------------------------------------------------|
A||------------------------------------------------------------------------|
E||------------------------------------------------------------------------|

E||12h15-15-12h15-15-12h15-15-12h15-15-15-15-15-15-15-15--(10/)12-12-12-12-|
B||------------------------------------------------------------------------|
G||------------------------------------------------------------------------|
D||------------------------------------------------------------------------|
A||------------------------------------------------------------------------|
E||------------------------------------------------------------------------|
                                                                 Solo 1:Kraj
Zatim sledi varijacija drugog dela uvoda:
--7----7----7----7----|------|--8-----8-----8-----8---|------|
--8----8----8----8----|------|--10----10----10----10--|------|
--7----7----7----7----|------|--9-----9-----9-----9---|------|
----------------------|------|------------------------|------|
----------------------|------|------------------------|------|
----------------------|------|------------------------|------|

--8-----8---------------|-------|--7----7----7----7--|------|
--10----10--------------|-------|--8----8----8----8--|------|
--9-----9-----9----9\---|--0----|--7----7----7----7--|------|
------------------------|-------|--------------------|------|
------------------------|-------|--------------------|------|
------------------------|-------|--------------------|------|
                                                
--8-----8-----8----8----|--8-----8----------||
--10----10----10---10---|--10----10---------||
--9-----9-----9----9----|--9-----9-----9----||
------------------------|-------------------||
------------------------|-------------------||
------------------------|-------------------||
"            
Submit corrections

comments powered by Disqus
↑ Back to top | Azra Tabs for Balkan. Lyrics for acoustic guitar and electric guitar. 1 Tablatures and chords are parodies/interpretations of the original songs. You may use it for private study, scholarship, research or language learning purposes only