» » »

Ako Znas Bilo Sto Chords (ver.1)

Artists:  A B C D E F G H I J K L M N O P Q R S T U V W X Y Z # 

Ako Znas Bilo Sto Chords (ver.1)

Azra
Rating:
0/5 (0 votes)

Hard to play? Try these video lessons and learn fast.
                Ako znas bilo sto

       --------------------------------------|
       -------0-1--------3-1-0-----------0-1-|
       -----2----------2-------2-------2-----|
       ---2----------2---------------2-------|
       -0----------0---------------0---------|
       --------------------------------------|


       --------a---------------------C
       Ne znam sto da radim sa sobom
       ---------------------d
       Na sto misli da bacim
       -------------F--------------------a
       I da stvaram polako pjesmu o tebi
       Gledam tvoje tijelo
       Ludujem za njim
       I ponavljam u sebi samo jedno
         C-------------G-------------a--------------------------G
         Poljubi me... Poljubi me... Pa mi prste u kosu uvuci i zagrli me...
         C-------------G-------------a-------------------------G
         Poljubi me... Poljubi me... Pa se privij ti uz mene i zapjevaj
         ----a-------C--G-----------------a
         Ako znas... uuuuu.... bilo sto...
       Zelim da se stisnem uz tebe
       Da te milujem
       Da ti sapucem na uho bisere
       Da pricam o slobodi,
       Da se glupiram
       Da ti kazem oh ti ludo jedina
            
Hard to play? Try these video lessons and learn fast. | Correct




comments powered by Disqus
↑ Back to top | Tablatures and chords are parodies/interpretations of the original songs. You may use it for private study, scholarship, research or language learning purposes only