>
 >
Williams Blake Overdrive

Williams Blake Overdrive Guitar Tabs

A Wilhelm Scream - Williams Blake Overdrive chords, tabs, tablatures, lyrics

Guitar lessons | Add/correct | Request | Top 50 tabs Artists:  A B C D E F G H I J K L M N O P Q R S T U V W X Y Z 0-9

Williams Blake Overdrive Guitar Tabs – A Wilhelm Scream

CD, Sheet music, Poster

Do you like Williams Blake Overdrive? Share with your friends now
Tabs
Track: Williams Blake Overdrive
Released: 2004
Label: Nitro Records


Key:
|---| ~ this is a section which is palm muted
  h   ~ hammer on
  ~   ~ let note ring
  p   ~ pull off
  / \  ~ slide from the note before the slash to the note after it. if no number after,just slide

0:00
Rhythm
e---------------------------------------------------------------------------------------------------|
B---------------------------------------------------------------------------------------------------|
G-------------------6--6-6--6-6-6---------------3--3-3--3-3-3-3-------------------------------------|
D-4-4--4-4-4--4-4-4-6--6-6--6-6-6-3--3-3--3-3-3-3--3-3--3-3-3-3-6--6-6--6-6-6-6--4--4-4--4-4-4--4~--|
A-4-4--4-4-4--4-4-4-4--4-4--4-4-4-3--3-3--3-3-3-1--1-1--1-1-1-1-6--6-6--6-6-6-6--4--4-4--4-4-4--4~--|
D-4-4--4-4-4--4-4-4---------------3--3-3--3-3-3-----------------6--6-6--6-6-6-6--4--4-4--4-4-4--4~--|

0:00
Lead
e-6-6-4--------------------6-5----6-8-6-5--6-9-8-9-6--9-8-9-6--9-8-9--11-9~--9-9--9-8-6------|
B-------7-6--4-6-----6h7p6-----6--------------------------------------------------------9-6--|
G----------------6-8-------------------------------------------------------------------------|
D--------------------------------------------------------------------------------------------|
A--------------------------------------------------------------------------------------------|
D--------------------------------------------------------------------------------------------|

0:09
Rhythm
e-6-4---4------------------------------6-4---4-------------------------------------|
B-----6---7-4--7-6--------6~-4~-2~-1~------6---7-4--7-6--------6~-7~/9~\7~---------|
G------------------6--6-8-------------------------------6--6-8-------------3-3-3-3-|
D--------------------------------------------------------------------------3-3-3-3-|
A--------------------------------------------------------------------------1-1-1-1-|
D----------------------------------------------------------------------------------|
                                                                          |-----|
0:09
Lead
e----------------------------------------------------------------------------|
B---7-6---6-4----4-2---------------------7-6---6-4----4-2--------------------|
G-6-----6-----5------3-3-5-6~-5~-3~-1~-6-----6-----5------3-3-5-6~-8~-10~-8~-|
D----------------------------------------------------------------------------|
A----------------------------------------------------------------------------|
D----------------------------------------------------------------------------|

0:21
Rhythm - finger tapping - repeat until 0:39
e--------------------------------------------------------------------------------------------|
B--------------------------------------------------------------------------------------------|
G--------------------------------------------------------------------------------------------|
D-11-5-8-11-5-8-11-5-8-11-5-8--10-5-8-10-5-8-10-5-8-10-5-8--13-7-10-13-7-10-13-7-10-13-7-10--|
A--------------------------------------------------------------------------------------------|
D--------------------------------------------------------------------------------------------|

0:21
Lead - finger tapping - Repeat until 0:39
e-----------------------------------------------------------------------------------|
B-----------------------------------------------------------------------------------|
G-10-5-8-10-5-8-10-5-8-10-5-8--8-3-6-8-3-6-8-3-6-8-3-6--11-5-8-11-5-8-11-5-8-11-5-8-|
D-----------------------------------------------------------------------------------|
A-----------------------------------------------------------------------------------|
D-----------------------------------------------------------------------------------|

0:39
e-----------------------------------------------------------------------------------------------------------|
B-----------------------------------------------------------------------------------------------------------|
G-3-3--3-3-3-x-6-6--6-6-6-x---------------------------------------------------------------------------------|
D-3-3--3-3-3-x-6-6--6-6-6-x-6-6--6-6-6--6-6-6--6-6-6-x-4-4--4-4-4--4-4-4--4-4-4--4-4-4--4-4-4--4-4-4-4-4-4--|
A-1-1--1-1-1-x-4-4--4-4-4-x-6-6--6-6-6--6-6-6--6-6-6-x-4-4--4-4-4--4-4-4--4-4-4--4-4-4--4-4-4--4-4-4-4-4-4--|
D---------------------------6-6--6-6-6--6-6-6--6-6-6-x-4-4--4-4-4--4-4-4--4-4-4--4-4-4--4-4-4--4-4-4-4-4-4--|
                                                                                              |-------------|

0:47
Rhythm
e-6-4---4------------------------------6-4---4-----------------------------|
B-----6---7-4--7-6--------6~-4~-2~-1~------6---7-4--7-6--------6~-7~/9~\7~-|
G------------------6--6-8-------------------------------6--6-8-------------|
D--------------------------------------------------------------------------|
A--------------------------------------------------------------------------|
D--------------------------------------------------------------------------|

0:47
Lead
e----------------------------------------------------------------------------|
B---7-6---6-4----4-2---------------------7-6---6-4----4-2--------------------|
G-6-----6-----5------3-3-5-6~-5~-3~-1~-6-----6-----5------3-3-5-6~-8~-10~-8~-|
D----------------------------------------------------------------------------|
A----------------------------------------------------------------------------|
D----------------------------------------------------------------------------|

0:56
Rhythm
e-----------------------------|
B-----------------------------|
G-3-3-3-3--10-10-10-10\8-8-8--|
D-3-3-3-3---------------------|
A-1-1-1-1---------------------|
D-----------------------------|


0:56
Lead
e-----------------------|
B-----------------------|
G-3-3-3-3---------------|
D-3-3-3-3---------------|
A-1-1-1-1-4-4-4-4\3-3-3-|
D-----------------------|

0:58
Repeat 4x
e-------------------------------------------------------------------|
B-------------------------------------------------------------------|
G--------------------------------6-6-6-x----------------3-3-3-3-3-3-|
D-x-x-x-4--4-4--4-4-4-4--4-4-4-4-6-6-6-x-6--6-6-6-6-6-6-3-3-3-3-3-3-|
A-x-x-x-4--4-4--4-4-4-4--4-4-4-4-4-4-4-x-6--6-6-6-6-6-6-1-1-1-1-1-1-|
D-x-x-x-4--4-4--4-4-4-4--4-4-4-4---------6--6-6-6-6-6-6-------------|

1:02
Lead (in the background during powerchord rhythm part)
e------------------------------------------------------|
B------------------------------------------------------|
G-10-10-10-10-10-10-10-10-10-10-8-6-6-6-6-6-8--8-8-8-8-|
D------------------------------------------------------|
A------------------------------------------------------|
D------------------------------------------------------|

1:16
Rhythm - finger tapping - repeat until 1:34
e--------------------------------------------------------------------------------------------|
B--------------------------------------------------------------------------------------------|
G--------------------------------------------------------------------------------------------|
D-11-5-8-11-5-8-11-5-8-11-5-8--10-5-8-10-5-8-10-5-8-10-5-8--13-7-10-13-7-10-13-7-10-13-7-10--|
A--------------------------------------------------------------------------------------------|
D--------------------------------------------------------------------------------------------|

1:16
Lead - finger tapping - Repeat until 1:34
e-----------------------------------------------------------------------------------|
B-----------------------------------------------------------------------------------|
G-10-5-8-10-5-8-10-5-8-10-5-8--8-3-6-8-3-6-8-3-6-8-3-6--11-5-8-11-5-8-11-5-8-11-5-8-|
D-----------------------------------------------------------------------------------|
A-----------------------------------------------------------------------------------|
D-----------------------------------------------------------------------------------|

1:34
e---------------------------------------------------------------------------------------------|
B---------------------------------------------------------------------------------------------|
G-3-3--3-3-3-x-6-6--6-6-6-x-------------------------------------------------------------------|
D-3-3--3-3-3-x-6-6--6-6-6-x-6-6--6-6-6--6-6-6--6-6-6-x-4-4--4-4-4--4-4-4--4-4-4--4-4-4--4-4-4-|
A-1-1--1-1-1-x-4-4--4-4-4-x-6-6--6-6-6--6-6-6--6-6-6-x-4-4--4-4-4--4-4-4--4-4-4--4-4-4--4-4-4-|
D---------------------------6-6--6-6-6--6-6-6--6-6-6-x-4-4--4-4-4--4-4-4--4-4-4--4-4-4--4-4-4-|

1:42
Repeat 2x
e-------------------------------------------------|
B-------------------------------------------------|
G-6-6-X-------3-3--3-3-3-X-6-6-X------------------|
D-6-6-X-3-3-X-3-3--3-3-3-X-6-6-X-6-6-X-4-4--4-4-4-|
A-4-4-X-3-3-X-1-1--1-1-1-X-4-4-X-6-6-X-4-4--4-4-4-|
D-------3-3-X--------------------6-6-X-4-4--4-4-4-|

1:51
e-----------------------|
B-----------------------|
G-6-6-6-------3-3-3-3---|
D-6-6-6-3-3-3-3-3-3-3---|
A-4-4-4-3-3-3-1-1-1-1---|
D-------3-3-3-----------|
 |----------------------|

1:53
Rhythm
e--------------------------------------------------------------------------------------------------|
B--------------------------------------------------------------------------------------------------|
G--------------------------------------------------------------------------------------------------|
D-------------------------4-4-4-4-------------------------6-6-6-6-------------------------3-3-3-3--|
A-4-4-4-4-3-3-3-3-1-1-1-1-4-4-4-4-4-4-4-4-3-3-3-3-1-1-1-1-6-6-6-6-4-4-4-4-3-3-3-3-1-1-1-1-3-3-3-3--|
D-------------------------4-4-4-4-------------------------6-6-6-6-------------------------3-3-3-3--|

1:53
Lead
Repeat 3x
e--------------------------------------|
B-6-6-6-6------------------------------|
G--------8-8-8-8-6-6-6-6-8-8-8-8-------|
D--------------------------------------|
A--------------------------------------|
D--------------------------------------|

2:00
Lead
e-------------------------------------------------|
B-6-6-6-6-----------------6------6-9~---6---------|
G--------8-8-8-8-6-6-6-6----8-6~-----8~---8-6~-5~-|
D-------------------------------------------------|
A-------------------------------------------------|
D-------------------------------------------------|

2:00
Rhythm
e---------------------------------------------------------|
B---------------------------------------------------------|
G---------------------------------------------------------|
D------------------------------------------------------1~-|
A-4-4-4-4-3-3-3-3-1-1-1-1--4--3--1~--4--6--3~-4--3--1~----|
D---------------------------------------------------------|

2:10
e-------------------------------------------------------------------------------------------------|
B-------------------------------------------------------------------------------------------------|
G-----------------------8-8-8-8--8-8-8-8-8-8-8--3-3-3-3--3-3-3-3-3-3--3-3-3-4-4-4-4--4-4-4-4-4-4--|
D-4-4-4-4-x-4-4-4-4-4-4-8-8-8-8--8-8-8-8-8-8-8--3-3-3-3--3-3-3-3-3-3--3-3-3-4-4-4-4--4-4-4-4-4-4--|
A-4-4-4-4-x-4-4-4-4-4-4-6-6-6-6--6-6-6-6-6-6-6--1-1-1-1--1-1-1-1-1-1--1-1-1-2-2-2-2--2-2-2-2-2-2--|
D-4-4-4-4-x-4-4-4-4-4-4---------------------------------------------------------------------------|

2:18
Repeat 2x muted, 2x normal
e-------------------------------------------------------|
B-------------------------------------------------------|
G---------------------6-6-6-----------------3-3-3-3-3---|
D-4-4-4-4-4-4-4-4-4-4-6-6-6-6-6-6-6-6-6-6-6-3-3-3-3-3---|
A-4-4-4-4-4-4-4-4-4-4-4-4-4-6-6-6-6-6-6-6-6-1-1-1-1-1---|
D-4-4-4-4-4-4-4-4-4-4-------6-6-6-6-6-6-6-6-------------|

2:36
Repeat 4x muted
e--------------------------------|
B--------------------------------|
G-3-3-3-------------6-6-6--------|
D-3-3-3-6-6-6-4-4-4-6-6-6-3-3-3--|
A-1-1-1-6-6-6-4-4-4-4-4-4-3-3-3--|
D-------6-6-6-4-4-4-------3-3-3--|

2:44
Rhythm - finger tapping - repeat until 3:01
e--------------------------------------------------------------------------------------------|
B--------------------------------------------------------------------------------------------|
G--------------------------------------------------------------------------------------------|
D-11-5-8-11-5-8-11-5-8-11-5-8--10-5-8-10-5-8-10-5-8-10-5-8--13-7-10-13-7-10-13-7-10-13-7-10--|
A--------------------------------------------------------------------------------------------|
D--------------------------------------------------------------------------------------------|

2:44
Lead - finger tapping - Repeat until 3:01
e-----------------------------------------------------------------------------------|
B-----------------------------------------------------------------------------------|
G-10-5-8-10-5-8-10-5-8-10-5-8--8-3-6-8-3-6-8-3-6-8-3-6--11-5-8-11-5-8-11-5-8-11-5-8-|
D-----------------------------------------------------------------------------------|
A-----------------------------------------------------------------------------------|
D-----------------------------------------------------------------------------------|

3:02
e---------|
B---------|
G-6-------|
D---6-8\--|
A---------|
D---------|





Comments


Popular A Wilhelm Scream tabs & chords
Killing It Bass Tabs
These Dead Streets Bass Tabs
Dreaming Of Throwing Up Tabs
Famous Friends And Fashion Drunks 1 Tabs
Killing It Tabs
Rip Tabs
Rip (Intro) Tabs
Soft Sell Tabs
The Horse Tabs
The Kids Can Eat A Bag Of Dicks Tabs


Song lyrics



↑ Back to top | Tablatures and chords are parodies/interpretations of the original songs. You may use it for private study, scholarship, research or language learning purposes only
© 2014 AZChords.com Contact us | Privacy policy | DMCA | Add/correct tabs | Request tabs | Top 50 tabs