» » »

Soft Sell Tabs (ver.1)

Artists:  A B C D E F G H I J K L M N O P Q R S T U V W X Y Z # 

Soft Sell Tabs (ver.1)

A Wilhelm Scream
Rating:
0/5 (0 votes)
Tabs too difficult? Try these video lessons and learn fast.
                Lead
0:00
e-------------------------------------------------------------------------|
B-------------------------------------------------------------------------|
G-------5-5-5-5--------5-5-5-5/8---------5-5-5-5--------------------------|
D-3-3-3---------3-3-3--------------3-3-3---------6-5----------------------|
A-3-3-3---------3-3-3--------------3-3-3--------------6-4-3---6~--6--5----|
D-3-3-3---------3-3-3--------------3-3-3--------------------6-------------|

Rhythm
0:00
e--------------------------------------------------------------------------|
B--------6-6-6-6-6-------6-6-6-6/9--------6-6-6-6--------------------------|
G-------------------------------------------------5-3----------------------|
D-3-3-3------------3-3-3------------3-3-3-------------5-3-1---5~-3--1------|
A-3-3-3------------3-3-3------------3-3-3-------------------3--------------|
D-3-3-3------------3-3-3------------3-3-3----------------------------------|

Lead
  0:08       0:13                0:18 Repeat 4x (on 4th, replace 6-5-6 with next section)
e---------|---------|---------|-----------------------------------|---------------|
B---------|---------|---------|-----------------------------------|-6-6-6-6-6-6-6-|
G---------|---------|---------|-----5-------5-------5-----6-5-6---|-5-5-5-5-5-5-5-|
D-3-3-3-3-|-6-6-6-6-|-3-3-3-3-|-3-3---3-3-3---3-3-3---3-3---------|-3-3-3-3-3-3-3-|
A---------|---------|---------|-----------------------------------|---------------|
D---------|---------|---------|-----------------------------------|---------------|

Rhythm
0:18         0:23     0:26
e---------|---------|---------|
B---------|---------|---------|
G---------|-6-6-6-6-|-5-5-5-5-|
D-3-3-3-3-|-6-6-6-6-|-5-5-5-5-|
A-3-3-3-3-|-4-4-4-4-|-3-3-3-3-|
D-3-3-3-3-|---------|---------|

Both
0:28
Repeat 2x                         0:33
e------------------------------|-------------------------------|
B------------------------------|-------------------------------|
G--------------6-6-6-6-6-6-6-6-|-8-8-8-8-8-8-8-6-6-6-6-6-6-6-6-|
D-3-3-3-6--6-6-6-6-6-6-6-6-6-6-|-8-8-8-8-8-8-8-6-6-6-6-6-6-6-6-|
A-3-3-3-6--6-6-4-4-4-4-4-4-4-4-|-6-6-6-6-6-6-6-4-4-4-4-4-4-4-4-|
D-3-3-3-6--6-6-----------------|-------------------------------|

Lead
   0:36        0:41                    0:45
e----------|--------------|---------|---------------|
B----------|--------------|---------|-6-6-6-6-6-6---|
G----------|------------5-|---------|-5-5-5-5-5-5---|
D--3-3-3-3-|--6666-5-6----|-3-3-3-3-|-3-3-3-3-3-3---|
A----------|--------------|---------|---------------|
D----------|--------------|---------|---------------|

Rhythm
0:36        0:41
e---------|--------|------------|
B---------|--------|------------|
G---------|--------|------------|
D-3-3-3-3-|-------3|--3-3-3-----|
A-3-3-3-3-|-4-3-4--|--3-3-3-----|
D-3-3-3-3-|--------|--3-3-3-----|

Both
0:46
Repeat 3x                         0:54
e------------------------------|----------------------------------------------------------------|
B------------------------------|----------------------------------------------------------------|
G--------------6-6-6-6-6-6-6-6-|---------------------------------6-6-6-6-6-6-6-6-6-6-6-6-6-6-6--|
D-3-3-3-6--6-6-6-6-6-6-6-6-6-6-|-8-8-8-8-8-8-8-x-6-6-6-6-6-6-6-x-6-6-6-6-6-6-6-6-6-6-6-6-6-6-6--|
A-3-3-3-6--6-6-4-4-4-4-4-4-4-4-|-8-8-8-8-8-8-8-x-6-6-6-6-6-6-6-x-4-4-4-4-4-4-4-4-4-4-4-4-4-4-4--|
D-3-3-3-6--6-6-----------------|-8-8-8-8-8-8-8-x-6-6-6-6-6-6-6-x--------------------------------|

Both
0:59
e---------------------------------------------------------------------------------|
B---------------------------------------------------------------------------------|
G---------------------------------6-6-6-6-6-6-6-6-x-3-3-3-3-3-3-3-3---------------|
D-3-3-3-3-3-3-3-x-6-6-6-6-6-6-6-x-6-6-6-6-6-6-6-6-x-x-x-x-x-x-x-x-x---------------|
A-3-3-3-3-3-3-3-x-6-6-6-6-6-6-6-x-4-4-4-4-4-4-4-4-x-1-1-1-1-1-1-1-1---------------|
D-3-3-3-3-3-3-3-x-6-6-6-6-6-6-6-x-------------------------------------------------|

Lead
1:03 Repeat 2x
e---------------------|
B---------------------|
G-8-8-8-8-8-8-8-6-6-6-|
D-x-x-x-x-x-x-x-x-x-x-|
A-6-6-6-6-6-6-6-4-4-4-|
D---------------------|

Lead
1:09                                    Repeat 4x (on 4th, replace last 4 notes with 
section)
e-----------------------------------|------------------------------------------------------------------|----------|
B-----------------------------------|---------------------------------6-6-6-6-6-6-6-6---6-6-6-6-6-6-6-6|-6/4-4-4--|
G-------5-5-5-5-5-5-------5-5-5-5/8-|-----------------3-3-3-3-3-3-3-3-5-5-5-5-5-5-5-5---5-5-5-5-5-5-5-5|-5/3-3-3--|
D-3-3-3-------------3-3-3-----------|-6-6-6-6-6-6-6-6-3-3-3-3-3-3-3-3-3-3-3-3-3-3-3-3---3-3-3-3-3-3-3-3|-3/1-1-1--|
A-3-3-3-------------3-3-3-----------|-6-6-6-6-6-6-6-6-1-1-1-1-1-1-1-1----------------------------------|----------|
D-3-3-3-------------3-3-3-----------|-6-6-6-6-6-6-6-6--------------------------------------------------|----------|
                                     |----------------------------------------------------------------------------|

Rhythm
1:09                                    Repeat 4x (on 4th, replace last 4 notes with 
section)
e-----------------------------------|------------------------------------------------------------------|----------|
B-------6-6-6-6-6-6-------6-6-6-6/9-|---------------------------------6-6-6-6-6-6-6-6---6-6-6-6-6-6-6-6|-6/4-4-4--|
G-----------------------------------|-----------------3-3-3-3-3-3-3-3-5-5-5-5-5-5-5-5---5-5-5-5-5-5-5-5|-5/3-3-3--|
D-3-3-3-------------3-3-3-----------|-6-6-6-6-6-6-6-6-3-3-3-3-3-3-3-3-3-3-3-3-3-3-3-3---3-3-3-3-3-3-3-3|-3/1-1-1--|
A-3-3-3-------------3-3-3-----------|-6-6-6-6-6-6-6-6-1-1-1-1-1-1-1-1----------------------------------|----------|
D-3-3-3-------------3-3-3-----------|-6-6-6-6-6-6-6-6--------------------------------------------------|----------|
                                     |----------------------------------------------------------------------------|

Both
1:32 Repeat 2x
e---------------------------------------------------------------|
B---------------------------------------------------------------|
G-5-5-5-5--5-5--10-10-10-10---10-10--6-6-6-6--6-6--6-6-6-6--6-6-|
D-5-5-5-5--5-5--10-10-10-10---10-10--6-6-6-6--6-6--6-6-6-6--6-6-|
A-3-3-3-3--3-3---8--8--8--8----8--8--4-4-4-4--4-4--4-4-4-4--4-4-|
D---------------------------------------------------------------|

Lead
1:42 Repeat 2x                          1:52
e--8h9p8-6-8-6----8~-8h9p8-6---------|--9p8p6-8-8~--9p8p6-8~-9p8p6-8-8~-9p8p6-8~-8~-/-4~-|
B--------------9------------------9--|---------------------------------------------------|
G----------------------------8-10----|---------------------------------------------------|
D------------------------------------|---------------------------------------------------|
A------------------------------------|---------------------------------------------------|
D------------------------------------|---------------------------------------------------|

Rhythm - Repeat entire bit 2x
1:42
e----------------|-------------------|----------------|--------------------|
B----------------|-------------------|----------------|--------------------|
G-8h9p8--6-8-6-5-|-8-8h9p8-6-8-5-6-8-|-8h9p8--6-8-6-8-|-8-8h9p8-6-8-5-6-5--|
D----------------|-------------------|----------------|--------------------|
A----------------|-------------------|----------------|--------------------|
D----------------|-------------------|----------------|--------------------|

Rhythm
1:52
e--13h11h9-11-11~--13h11h9-11~--13h11h9-11-11~-13h11h9-11-11~-8~-|
B----------------------------------------------------------------|
G----------------------------------------------------------------|
D----------------------------------------------------------------|
A----------------------------------------------------------------|
D----------------------------------------------------------------|

Both
2:07
Repeat 3x                         0:54
e------------------------------|------------------------------------------------------------------|
B------------------------------|------------------------------------------------------------------|
G--------------6-6-6-6-6-6-6-6-|---------------------------------8-8-8-8-8-8-8-8-6-6-6-6-6-6-6-6--|
D-3-3-3-6--6-6-6-6-6-6-6-6-6-6-|-8-8-8-8-8-8-8-x-6-6-6-6-6-6-6-x-8-8-8-8-8-8-8-8-6-6-6-6-6-6-6-6--|
A-3-3-3-6--6-6-4-4-4-4-4-4-4-4-|-8-8-8-8-8-8-8-x-6-6-6-6-6-6-6-x-6-6-6-6-6-6-6-6-4-4-4-4-4-4-4-4--|
D-3-3-3-6--6-6-----------------|-8-8-8-8-8-8-8-x-6-6-6-6-6-6-6-x----------------------------------|

Lead
2:17
e----------------|
B----------------|
G----------------|
D-6-5-3----------|
A-------6-3-2-1~-|
D----------------|

Rhythm
2:17
e-----------8-11----|
B-13-11-9-8------8~-|
G-------------------|
D-------------------|
A-------------------|
D-------------------|
            
Tabs too difficult? Try these video lessons and learn fast.


comments powered by Disqus
↑ Back to top | Tablatures and chords are parodies/interpretations of the original songs. You may use it for private study, scholarship, research or language learning purposes only