» » »

These Dead Streets Bass tabs (ver.1)

Artists:  A B C D E F G H I J K L M N O P Q R S T U V W X Y Z # 

These Dead Streets Bass tabs (ver.1)

A Wilhelm Scream
Rating:
0/5 (0 votes)

Tabs too difficult? Try these video lessons and learn fast.
                Artist  :A Wilhelm Scream
Album   :Career Suicide
Track   :These Dead Streets
Tunning :Drop D

This song was hard to tab, its almost correct.

-Intro 1-                                       
G|------------------------------------------------------------------|
D|------------------------------------------------------------------|
A|---------------------------578~-----88888-3333----33~5~5~1~1~-----|
D|-8\-0000000000-07-08-07-08-----88888----------5353-----------3~5~-|

G|----------------------------------------------------------------|
D|------------------------5---------------------------------------|
A|-------------------------875-----88888-3333----33~35~5~1~1~3~5~-|
D|-00000000532-07-08-07-08----88888----------5353-----------------|

-Verse 1-
G|-------------------------------------------------------------------------|
D|-----------------------------------------------5~55----------------------|
A|-5~5555-8~88-3133-5~5555------3~3333-5~55-8~88---------------------------|
D|-------------------------3~33----------------------7~77-8~88888888-10-10-|

G|-------------------------------------------------------------------|
D|-----------------------------------------------5~55----------------|
A|-5~5555-8~88-3133-5~5555------3~3333-5~55-8~88---------------------|
D|-------------------------3~33----------------------7~77-8~88888888-|

-Pre Chorus 1-
G|-----------|------------------------------------------|
D|-----------|-------555532-----------------------------|
A|-3----3-1~-|------5------5111111111111----------------|
D|--3~5~-----|-55555---------------------5555557~778~88-|

-Chorus 1-
G|-------------------------------------------------------------|
D|-------------------2353203202--------------------------------|
A|---------------3~35----------3---------------1~111111111-3~3-|
D|-0-0~0003~33333---------------0-0~00003~33333----------------|

-Post Chorus 1-
G|-------------------------------------|
D|---------------------323-------------|
A|-333555-111333-000111---3-3-5\--3313-|
D|-------------------------------------|

-Verse 2-
G|-----------------------------------------------------------------|
D|-----------------------------------------------------------------|
A|-5~5555------3~3333-5~5555-8~88-3313-5~5555------3~3~1~111111111-|
D|--------3~33--------------------------------3~333----------------|

-Pre Chorus 2-
G|------------------------------------------|
D|-------555532-----------------------------|
A|------5------5111111111111----------------|
D|-55555---------------------5555557~778~88-|

-Chorus 2-
G|-----------------53232-2--------------------------------|
D|----------------------5-53232---------------------------|
A|---------------3~------------53-------------1~111111111-|
D|-0-0~0003~33333----------------0~00003~33333------------|

G|-----------------------------------------------------------|
D|-----------------------------------------------------------|
A|---------------3~3333333-----------------------1~111111111-|
D|-0-0~0003~33333---------5555555-0-0~00003~33333------------|

G|------------------------5/75-------|
D|----------------------------875----|
A|---------------3~3333333-------875-|
D|-0-0~0003~33333--------------------|

-Intro 2-
G|-------------------------------------------------------------|
D|-------------------------------------------------------------|
A|------------------------578~1133557788775533-33~5~5~1~1~-----|
D|-0000000000-07-08-07-08---------------------------------3~5~-|

G|------------------------------------------------|
D|------------------------5-----------------------|
A|-------------------------875-----88888-3333-----|
D|-00000000532-07-08-07-08----88888----------5353-|

-Outro 1-                                    
G|-------------------------------|
D|-------------------------32----|
A|---------------------------35\-|
D|-------------------------------|
(i cant figure out this end bit sorry, only got the last 4 notes)
            
Tabs too difficult? Try these video lessons and learn fast.




comments powered by Disqus
↑ Back to top | Tablatures and chords are parodies/interpretations of the original songs. You may use it for private study, scholarship, research or language learning purposes only