» » »

The King Is Dead Tabs (ver.2)

Artists:  A B C D E F G H I J K L M N O P Q R S T U V W X Y Z # 

The King Is Dead Tabs (ver.2)

A Wilhelm Scream
Rating:
0/5 (0 votes)

Hard to play? Try these video lessons and learn fast.
                Track: The King Is Dead
Released: 2005
Label: Nitro Records

Key:
|---| ~ this is a section which is palm muted
  h   ~ hammer on
  ~   ~ let note ring
  p   ~ pull off
  /   ~ slide from the note before the slash to the note after it unless theres no number to slide
        to, in which case just slide down the neck from the first number..
  ^   ~ bend

0:00 - Muted
Lead
e------------------------------------------------------------------------|
B---6p5~---6p5---8---------6p5---8---------6p5---8---------6p5---8-------|
G--------------5---0-4h5-------5---0-4h5-------5---0-4h5-------5---0-4h5-|
D-0------0---------------0---------------0---------------0---------------|
A------------------------------------------------------------------------|
D------------------------------------------------------------------------|

0:07 - Muted
e-----------------------------------------------------------------|
B------6p5---8---------6p5---8---------6p5---8---------6p5--------|
G----------5---0-4h5-------5---0-4h5-------5---0-4h5-------4h5----|
D----0---------------0---------------0---------------0------------|
A-----------------------------------------------------------------|
D-----------------------------------------------------------------|

0:11 - finger tapping-repeat 4x
Lead
e-------------------------------------------|
B-------------------------------------------|
G-------------------------------------------|
D-12-9-7-0-7-5-0-9-7-0-7-5-0-5-3-0-3-2-0-2-3|
A-------------------------------------------|
D-------------------------------------------|


0:22 - Repeat 4x - Muted
Lead
e--------------------------------------------|
B--------------------------------------------|
G-------------------------5-4----------------|
D-5-7-7-5-7-7-5-7-7-5-7-7-----7-5------------|
A--------------------------------------------|
D--------------------------------------------|

0:31 - Repeat 2x - Muted
e--------------------------------------------------------------------|
B------6p5---8---------6p5---8---------6p5---8---------6p5---8-------|
G----------5---5-4h5-------5---5-4h5-------5---5-4h5-------5---5-4h5-|
D----0---------------0---------------0---------------0---------------|
A--------------------------------------------------------------------|
D--------------------------------------------------------------------|

0:40
Lead - Repeat 3x
e------------------------------------------------------------------|
B-11p8-8-10p8-11p8-8-10p8-8-11p8-8-10p8-11p8-10p8-8-11p8-8-10p8----|
G------------------------------------------------------------------|
D------------------------------------------------------------------|
A------------------------------------------------------------------|
D------------------------------------------------------------------|

0:40 
Repeat 2x
e-------------------------------|
B-------------------------------|
G-------------------------------|
D---3-3-3-3-0000-0000-0000-0000-|
A---3-3-3-3-0000-0000-0000-0000-|
D---3-3-3-3-0000-0000-0000-0000-|

0:49
e--------------------------------------|
B--------------------------------------|
G---3-3-3-3-3-3-3----------------------|
D---3-3-3-3-3-3-3--------0000-0000-0333|
A---1-1-1-1-1-1-1--------0000-0000-0333|
D--------------------3p0-0000-0000-0333|
0:57
e--------------------------------------|
B--------------------------------------|
G-3-3--3-3-3--3-5-5--------------------|
D-3-3--3-3-3--3-5-5-3-3-3-0~----0~-----|
A-1-1--1-1-1--1-3-3-3-3-3-0~----0~-----|
D-------------------3-3-3-0~----0~-----|

1:02
e------------------------------------------------------|
B------------------------------------------------------|
G-3-3--3-3-3------------3-3--3-3-3---------------------|
D-3-3--3-3-3-5-5--5-5-5-3-3--3-3-3-555--5-3-2-0--------|
A-1-1--1-1-1-5-5--5-5-5-1-1--1-1-1-555--5-3-2-0--------|
D------------5-5--5-5-5------------555--5-3-2-0--------|
                                  

1:07
Repeat 2x - on second repeat add second section
e----------------------------------------------------|---------------------|
B----------------------------------------------------|---------------------|
G---------------------------3-3--3-3-3--3-3-3--3-3-3-|---------------------|
D-0-0--0-0-0--0-3-3--3-3-3--3-3--3-3-3--3-3-3--3-3-3-|-3-2--0~-------------|
A-0-0--0-0-0--0-3-3--3-3-3--1-1--1-1-1--1-1-1--1-1-1-|-3-2--0~-------------|
D-0-0--0-0-0--0-3-3--3-3-3---------------------------|-3-2--0~----/5~------|

1:26 - Repeat 3x - Muted
Lead
e--------------------------------------------|
B--------------------------------------------|
G-------------------------5-4----------------|
D-5-7-7-5-7-7-5-7-7-5-7-7-----7-5------------|
A--------------------------------------------|
D--------------------------------------------|

1:33
e---------------------------------------------|
B---------------------------------------------|
G------------------------3--------------------|
D-5-7--7-7-7-7-7---3333223--------------------|
A------------------3333221--------------------|
D------------------333322---------------------|
      
1:35
Lead - Repeat 3x
e------------------------------------------------------------------|
B-11p8-8-10p8-11p8-8-10p8-8-11p8-8-10p8-11p8-10p8-8-11p8-8-10p8----|
G------------------------------------------------------------------|
D------------------------------------------------------------------|
A------------------------------------------------------------------|
D------------------------------------------------------------------|

1:35
Repeat 2x
e-------------------------------|
B-------------------------------|
G-------------------------------|
D---3-3-3-3-0000-0000-0000-0000-|
A---3-3-3-3-0000-0000-0000-0000-|
D---3-3-3-3-0000-0000-0000-0000-|

1:44
e-----------------------------------------|
B-----------------------------------------|
G---3-3-3-3-3-3-3-------------------------|
D---3-3-3-3-3-3-3--------0000-0000-0333-0~|
A---1-1-1-1-1-1-1--------0000-0000-0333-0~|
D--------------------3p0-0000-0000-0333-0~|


1:53 - Repeat 2x-play last part only second time
e-------------------------------------------------------------------|---|
B-------------------------------------------------------------------|---|
G---------------5--5-5--5-5-5--3--3-3--3-3-3------------------------|---|
D-0--0-0--0-0-0-5--5-5--5-5-5--3--3-3--3-3-3--5--5-5--5-5-5--5-3-2--|-0-|
A-0--0-0--0-0-0-3--3-3--3-3-3--1--1-1--1-1-1--5--5-5--5-5-5--5-3-2--|-0-|
D-0--0-0--0-0-0-------------------------------5--5-5--5-5-5--5-3-2--|-0-|
                  Repeat twice
e---------------|----------------------|
B---------------|----------------------|
G---------------|--777-666-555-4-3-2---|
D-0—-0--00---0--|--777-666-555-4-3-2---|
A-0—-0--00---0--|--555-444-333-2-1-0---|
D-0—-0--00---0--|----------------------|

2:13
Rhythm - Repeat 2x
e----------------|
B----------------|
G----------------|
D-0-3-5-8-7-0----|
A-0-3-5-8-7-0----|
D-0-3-5-8-7-0----|

Lead - very fast picking, repeat 3x
2:14
e-13-12-10--|
B-----------|
G-----------|
D-----------|
A-----------|
D-----------|

2:17          <--tremelo picking-->
Lead
e--------------------------------------------|
B-9-10-9-------------------------------------|
G--------10~---10-9-12-10-14-12-15-14^\------|
D--------------------------------------------|
A--------------------------------------------|
D--------------------------------------------|

2:22 - Muted
e-----------------------|
B-----------------------|
G-----------------------|
D-0-10-8-7-8-7-5-3-0----|
A-0-10-8-7-8-7-5-3-0----|
D-0-10-8-7-8-7-5-3-0----|

2:25 - Repeat 4x
e-------------------------------------------|
B-------------------------------------------|
G-------------------------------------------|
D-0-3-5-0-8-0-5-7---------------------------|
A-0-3-5-0-8-0-5-7---------------------------|
D-0-3-5-0-8-0-5-7---------------------------|

2:30
e--------------------------------------------|
B--------------------------------------------|
G--------------------------------------------|
D-0-0-0-0-----------0-0-0-0------------------|
A-0-0-0-0-----------0-0-0-0------------------|
D-0-0-0-0-5-5~-5-5~-0-0-0-0-5-5~-5-5~--------|

2:34
e--------------------------------------------------|
B--5h6p5------------5h6p5--------------------------|
G--------7p5h7p5-----------7p5h7p5-----------------|
D----------------7~----------------7~--5-5h7~------|
A--------------------------------------------------|
D--------------------------------------------------|

2:58
e---------------------------------|
B---------------------------------|
G-7-7-7--7\5-5-5\3-3-3-3-3--------|
D-7-7-7--7\5-5-5\3-3-3-3-3--------|
A-5-5-5--5\3-3-3\1-1-1-1-1--------|
D---------------------------------|

3:02 - Repeat 2x
e----------------------------------------------------|
B----------------------------------------------------|
G---------------------------3-3--3-3-3--3-3-3--3-3-3-|
D-0-0--0-0-0--0-3-3--3-3-3--3-3--3-3-3--3-3-3--3-3-3-|
A-0-0--0-0-0--0-3-3--3-3-3--1-1--1-1-1--1-1-1--1-1-1-|
D-0-0--0-0-0--0-3-3--3-3-3---------------------------|

3:12
Rhythm - Repeat as necessary
e---------------------------------|
B---------------------------------|
G---------------------------------|
D-0--0-0-0--0-0-0--0-0-0----------|
A-0--0-0-0--0-0-0--0-0-0----------|
D-0--0-0-0--0-0-0--0-0-0----------|

3:19
e---------------------------------|
B---------------------------------|
G-3~-3~-3~-3~---------------------|
D-3~-3~-3~-3~-333-2---------------|
A-1~-1~-1~-1~-333-2---------------|
D-------------333-2---------------|
             |-----|
            
Hard to play? Try these video lessons and learn fast. | Correct




comments powered by Disqus
↑ Back to top | Tablatures and chords are parodies/interpretations of the original songs. You may use it for private study, scholarship, research or language learning purposes only