» » »

The King Is Dead Bass tabs (ver.1)

Artists:  A B C D E F G H I J K L M N O P Q R S T U V W X Y Z # 

The King Is Dead Bass tabs (ver.1)

A Wilhelm Scream
Rating:
5/5 (4 votes)

Hard to play? Try these video lessons and learn fast.
                -------------------------------------------------------------------------------
-------------------------------------------------------------------------------


*They're ones, not elevens*

 Tuning: Drop D

G|--------------10h12-10----10~-------10~------------------------------------|
D|----/5~--7-8~----------12-12~-12-10-10~-10\----------3h5--3----------------|
A|2-3---------------------------------------------------------5--3-----------|
D|---------------------------------------------3--5--8-------------3--0~-----|


G|---------------------------------------------------------------------------|
D|---------------------------------------------------------------------------|
A|11-111-111-111-1----------------11-111-111-111-1--------3-3-3--------------|
D|----------------00-000-000-000-0-----------------00-000--------------------|

  To finally admit we are born...
G|---------------------------------------------------------------------------|
D|---------------------------------------------------------------------------|
A|------------1111111111111111------------11-111-1-33-3----------------------|
D|55-55-00-00------------------55-55-00030--------------33-3-0~-0~-----------|

G|---------------------------------------------------------------------------|
D|---------------------------------------------------------------------------|
A|11-111-1--------11-111-----------------------------------------------------|
D|---------55-555--------5555-3-2-0------------------------------------------|

G|---------------------------------------------------------------------------|
D|---------------------------------------------------------------------------|
A|------------------11-111-111-111-1-------------------11-111-111------------|
D|00-000-0-33-333-3------------------00-000-0-33-333-3------------3-2-0~-----|

G|3~--5~---------------------------------------------------------------------|
D|3~--5~---------------------------------------------------------------------|
A|---------------------------------------------------------------------------|
D|--------/8~~---------------------------------------------------------------|


G|---------------------------------------------------------------------------|
D|---------------------------------------------------------------------------|
A|1111111111111111-3333333333333333-1111111111111111-----------------1-----1-|
D|---------------------------------------------------555555555555555---3332--|


*ones not elevens*
G|---------------------------------------------------------------------------|
D|---------------------------------------------------------------------------|
A|0h11-111-111-111-1----------------111-111-111-111-1--------3-3-3-----------|
D|------------------00-000-000-000-0-----------------00-000------------------|

G|---------------------------------------------------------------------------|
D|---------------------------------------------------------------------------|
A|------------1111111111111111-----------------------------------------------|
D|55-55-00-00------------------55-55-00030-----------------------------------|


The King is dead...                                                         X2
G|---------------------------------------------------------------------------|
D|---------------------------------------------------------------------------|
A|-----------33-33-33-33-311-11-11-1-----------------------------------------|
D|00-00000-0-------------------------55-55-5530------------------------------|

solo part X5
G|10-9----12-----------------------------------------------------------------|
D|-----10----9-9-10----------------------------------------------------------|
A|---------------------------------------------------------------------------|
D|---------------------------------------------------------------------------|

X2
G|---------------------------------------------------------------------------|
D|---------------------------------------------------------------------------|
A|555-444-333-222-11-00------------------------------------------------------|
D|---------------------------------------------------------------------------|

             X2
G|------------|--------------------------------------------------------------|
D|------------|--------------------------------------------------------------|
A|------------|--------------------------33-1-0-1-0--------------------------|
D|0-3-5-8-7-0-|-0-0----0-0----0-0----0-0------------5-33---------------------|
               X4
G|---------------|-----------------------------------------------------------|
D|---------------|-----------------------------------------------------------|
A|------0-1-0----|-----------------------------------------------------------|
D|0-3-5-------5-7|-0-0-0-0-66~-66~-0-0-0-0-66~-66~---------------------------|

X2
G|---------------------------------------------------------------------------|
D|----3------3---------------------------------------------------------------|
A|1111--11-11-------------------3333-3-33-33-3333-1111-1-11-11-1111----------|
D|------------0000-0-00-00-0000--------------------------------------5~-5/8~-|

G|---------------------------------------------------------------------------|
D|---------------------------------------------------------------------------|
A|5555-333-111111111-5555-333-1----------------------------------------------|
D|---------------------------------------------------------------------------|

The King is dead...
G|---------------------------------------------------------------------------|
D|---------------------------------------------------------------------------|
A|----------------11-111-111-111-1------------------11-111-111-111-----------|
D|00-000-033-333-3-----------------00-000-0-33-333-3-------------------------|


Tell me again what a monster is...
G|---------------------------------------------------------------------------|
D|---------------------------------------------------------------------------|
A|-------------------------------------------------1-1-1-1-------------------|
D|0-000-00-00-00000-000-00-00-00000-000-00-00-0000---------3332--------------|
            
Hard to play? Try these video lessons and learn fast. | Correct




comments powered by Disqus
↑ Back to top | Tablatures and chords are parodies/interpretations of the original songs. You may use it for private study, scholarship, research or language learning purposes only