» » »

A Wilhelm Scream, The King Is Dead Tabs (ver.1)

Artists:  A B C D E F G H I J K L M N O P Q R S T U V W X Y Z # 

The King Is Dead Tabs (ver.1)

A Wilhelm Scream Tabs
 Rating:
4.6/5 (10 votes)
The King Is Dead lessons Tabs too difficult? Try these video lessons and learn fast
                Track: The King Is Dead
Released: 2005
Label: Nitro Records

Key:
|---| ~ this is a section which is palm muted
  h   ~ hammer on
  ~   ~ let note ring
  p   ~ pull off
  /   ~ slide from the note before the slash to the note after it unless theres no number to slide
        to, in which case just slide down the neck from the first number..
  ^   ~ bend

0:00 - Muted
Lead
e------------------------------------------------------------------------|
B---6-5~---6-5---8---------6-5---8---------6-5---8---------6-5---8-------|
G--------------5---0-4-5-------5---0-4-5-------5---0-4-5-------5---0-4-5-|
D-0------0---------------0---------------0---------------0---------------|
A------------------------------------------------------------------------|
D------------------------------------------------------------------------|

0:00 - Muted
Rhythm
e---------------------------------------------------------------------------------------------------|
B---------------------------------------------------------------------------------------------------|
G---------------------------------------------------------------------------------------------------|
D--12-10~---12-10----15------------12-10----15------------12-10----15----------12-10----15----------|
A-----------------12-----0-11-12---------12-----0-11-12---------12----0-11-12--------12----0-11-12--|
D-0-------0----------------------0----------------------0---------------------0---------------------|

0:07 - Muted
e-----------------------------------------------------------------|
B------6-5---8---------6-5---8---------6-5---8---------6-5--------|
G----------5---0-4-5-------5---0-4-5-------5---0-4-5-------5-9-7~-|
D----0---------------0---------------0---------------0------------|
A-----------------------------------------------------------------|
D-----------------------------------------------------------------|

0:07 - Muted
e---------------------------------------------------------------------------------|
B---------------------------------------------------------------------------------|
G---------------------------------------------------------------------------------|
D--12-10----15------------12-10-----15----------12-10------15-----------12-10-----|
A--------12----0--11-12---------12-----0-11-12---------12-----0-11-12---------12--|
D-0---------------------0---------------------0-----------------------0-----------|

0:11 - finger tapping (not correct but its a rough guess - i have no amp to try try it properly)
Lead
e-------------------------------------|
B-------------------------------------|
G-------------------------------------|
D-12--7-9-12-6-7-12-5-7-12-4-5-12-5-7-|
A-------------------------------------|
D-------------------------------------|

0:18
Lead
e--------------------------------------------|
B-8-6-5--8-6---------------------------------|
G------------5-7-----------------------------|
D--------------------------------------------|
A--------------------------------------------|
D--------------------------------------------|

0:22 - Repeat 4x - Muted
Lead
e--------------------------------------------|
B--------------------------------------------|
G--------------------------------------------|
D-5-7-7-5-7-7-5-7-7-5-7-7-10-10-9-7----------|
A--------------------------------------------|
D--------------------------------------------|


0:22 - Repeat 4x - Muted
Rhythm
e--------------------------------------------|
B--------------------------------------------|
G---------------------------------9----------|
D-9-10-10-9-10-10-9-10-10-9-10-10---12-10-9--|
A--------------------------------------------|
D--------------------------------------------|

0:31 - Repeat 2x - Muted
e--------------------------------------------------------------------|
B------6-5---8---------6-5---8---------6-5---8---------6-5---8-------|
G----------5---0-4-5-------5---0-4-5-------5---0-4-5-------5---0-4-5-|
D----0---------------0---------------0---------------0---------------|
A--------------------------------------------------------------------|
D--------------------------------------------------------------------|

0:40
Lead - Repeat 3x
e------------------------------------------------------------------|
B-10-10-10-8-8-8-11-11-11-10-10-10--10-10-10-10-8-8-8-11-11-11-10--|
G------------------------------------------------------------------|
D------------------------------------------------------------------|
A------------------------------------------------------------------|
D------------------------------------------------------------------|

0:40
Rhythm A
e------------------------------------------------------------------|
B------------------------------------------------------------------|
G-10-10-10-9-9-9-12-12-12-10-10-10--10-10-10-10-9-9-9-12-12-12-10--|
D------------------------------------------------------------------|
A------------------------------------------------------------------|
D------------------------------------------------------------------|

0:48
Lead
e--------------------------------------------|
B-10-10-10-10-8-8-8-11-11-11-10^-------------|
G--------------------------------------------|
D--------------------------------------------|
A--------------------------------------------|
D--------------------------------------------|

0:48
Rythm A
e--------------------------------------------|
B--------------------------------------------|
G-10-10-10-10-9-9-9-12-12-12-10^-------------|
D--------------------------------------------|
A--------------------------------------------|
D--------------------------------------------|

0:40
Rhythm B - Repeat 2x
e------------------------------------------------|
B------------------------------------------------|
G-3-3333-3333-3333-3333-333----------------------|
D-3-3333-3333-3333-3333-3330-0000-0000-0000-0000-|
A-1-1111-1111-1111-1111-1110-0000-0000-0000-0000-|
D--------------------------0-0000-0000-0000-0000-|

0:49
e------------------------------------------------------------------------|
B--------------------------------------------------8-xxxx-8--------------|
G-x-5-5-5------------------------3-3-3-3-3-3-3-3-3-7-xxxx-7--------------|
D-x-5-5-5-5-xxxx-5-xxxx-0-xxxx-0-3-3-3-3-3-3-3-3-3-5-xxxx-5-0-0-0-3-0----|
A-x-3-3-3-5-xxxx-5-xxxx-0-xxxx-0-1-1-1-1-1-1-1-1-1----------0-0-0-3-0----|
D---------5-xxxx-5-xxxx-0-xxxx-0----------------------------0-0-0-3-0----|

0:57
e--------------------------------------|
B--------------------------------------|
G-3-3--3-3-3--3-5-5--------------------|
D-3-3--3-3-3--3-5-5-3-3-3-0~----0~-----|
A-1-1--1-1-1--1-3-3-3-3-3-0~----0~-----|
D-------------------3-3-3-0~----0~-----|

1:02
e------------------------------------------------------|
B------------------------------------------------------|
G-3-3--3-3-3------------3-3--3-3-3---------------------|
D-3-3--3-3-3-5-5--5-5-5-3-3--3-3-3-555--5-3-2-0--------|
A-1-1--1-1-1-5-5--5-5-5-1-1--1-1-1-555--5-3-2-0--------|
D------------5-5--5-5-5------------555--5-3-2-0--------|
                                  |---|

1:07
Repeat 2x - on second repeat add second section
e----------------------------------------------------|---------------------|
B----------------------------------------------------|---------------------|
G---------------------------3-3--3-3-3--3-3-3--3-3-3-|------------------3~-|
D-0-0--0-0-0--0-3-3--3-3-3--3-3--3-3-3--3-3-3--3-3-3-|-3-2--0~----5~----3~-|
A-0-0--0-0-0--0-3-3--3-3-3--1-1--1-1-1--1-1-1--1-1-1-|-3-2--0~----5~----1~-|
D-0-0--0-0-0--0-3-3--3-3-3---------------------------|-3-2--0~----5~-------|

1:26 - Repeat 3x - Muted
Lead
e--------------------------------------------|
B--------------------------------------------|
G--------------------------------------------|
D-5-7-7-5-7-7-5-7-7-5-7-7-10-10-9-7----------|
A--------------------------------------------|
D--------------------------------------------|

1:26 - Repeat 3x - Muted
Rhythm
e---------------------------------------------|
B---------------------------------------------|
G-----------------------------------9---------|
D-9-10-10-9-10-10-9-10-10-9-10-10-9---12-10-9-|
A---------------------------------------------|
D---------------------------------------------|

1:33
e---------------------------------------------|
B---------------------------------------------|
G------------------------3--------------------|
D-5-7--7-7-7-7-7---3333223--------------------|
A------------------3333221--------------------|
D------------------333322---------------------|
      |---------------------------------------|

1:35
Lead - Repeat 3x
e------------------------------------------------------------------|
B-10-10-10-8-8-8-11-11-11-10-10-10--10-10-10-10-8-8-8-11-11-11-10--|
G------------------------------------------------------------------|
D------------------------------------------------------------------|
A------------------------------------------------------------------|
D------------------------------------------------------------------|

1:35
Rhythm A
e------------------------------------------------------------------|
B------------------------------------------------------------------|
G-10-10-10-9-9-9-12-12-12-10-10-10--10-10-10-10-9-9-9-12-12-12-10--|
D------------------------------------------------------------------|
A------------------------------------------------------------------|
D------------------------------------------------------------------|

1:44
Lead
e--------------------------------------------|
B-10-10-10-10-8-8-8-11-11-11-10^-------------|
G--------------------------------------------|
D--------------------------------------------|
A--------------------------------------------|
D--------------------------------------------|

1:44
Rythm A
e--------------------------------------------|
B--------------------------------------------|
G-10-10-10-10-9-9-9-12-12-12-10^-------------|
D--------------------------------------------|
A--------------------------------------------|
D--------------------------------------------|

1:35
Rhythm B - Repeat 2x
e------------------------------------------------|
B------------------------------------------------|
G-3-3333-3333-3333-3333-333----------------------|
D-3-3333-3333-3333-3333-3330-0000-0000-0000-0000-|
A-1-1111-1111-1111-1111-1110-0000-0000-0000-0000-|
D--------------------------0-0000-0000-0000-0000-|

1:44
e-------------------------------------------------------------------------|
B--------------------------------------------------8-xxxx-8---------------|
G-x-5-5-5------------------------3-3-3-3-3-3-3-3-3-7-xxxx-7---------------|
D-x-5-5-5-5-xxxx-5-xxxx-0-xxxx-0-3-3-3-3-3-3-3-3-3-5-xxxx-5-0-0-3-3-0-0---|
A-x-3-3-3-5-xxxx-5-xxxx-0-xxxx-0-1-1-1-1-1-1-1-1-1----------0-0-3-3-0-0---|
D---------5-xxxx-5-xxxx-0-xxxx-0----------------------------0-0-3-3-0-0---|

1:53 - Repeat 2x - on second repeat add the extra chord, play that note during the quiet part in
time with the cymbal clashes, listen for timing.
e-------------------------------------------------------------------|---|
B-------------------------------------------------------------------|---|
G---------------5--5-5--5-5-5--3--3-3--3-3-3------------------------|---|
D-0--0-0--0-0-0-5--5-5--5-5-5--3--3-3--3-3-3--5--5-5--5-5-5--6-5-3--|-0-|
A-0--0-0--0-0-0-3--3-3--3-3-3--1--1-1--1-1-1--5--5-5--5-5-5--6-5-3--|-0-|
D-0--0-0--0-0-0-------------------------------5--5-5--5-5-5--6-5-3--|-0-|

2:09 - Repeat 2x
e---------------------------------|
B---------------------------------|
G---------------------------------|
D-5-5-5-4-4-4-3-3-3-2-2-2-1-1-1-0-|
A-5-5-5-4-4-4-3-3-3-2-2-2-1-1-1-0-|
D-5-5-5-4-4-4-3-3-3-2-2-2-1-1-1-0-|

2:13
Rhythm - Repeat 2x
e----------------|
B----------------|
G----------------|
D-0-3-5-8-7-0----|
A-0-3-5-8-7-0----|
D-0-3-5-8-7-0----|

Lead - very fast picking, repeat 3x
2:14
e-13-12-10--|
B-----------|
G-----------|
D-----------|
A-----------|
D-----------|

2:17          <--tremelo picking-->
Lead
e--------------------------------------------|
B-9-10-9-------------------------------------|
G--------10~---10-9-12-10-14-12-15-14^\------|
D--------------------------------------------|
A--------------------------------------------|
D--------------------------------------------|


2:17          <--tremelo picking-->
Rhythm
e--------------------------------------------|
B-9-10-9-------------------------------------|
G--------10~---------------------------------|
D-------------12-10-14-12-15-14-17-15--------|
A--------------------------------------------|
D--------------------------------------------|

2:22 - Muted
e--------------------------|
B--------------------------|
G-5-5-3-2-3-2--------------|
D-5-5-3-2-3-2-5-3-3--------|
A-3-3-1-0-1-0-5-3-3--------|
D-------------5-3-3--------|

2:25 - Repeat 4x
e-------------------------------------------|
B-------------------------------------------|
G-------------------------------------------|
D-0-3-5-0-8-0-5-7---------------------------|
A-0-3-5-0-8-0-5-7---------------------------|
D-0-3-5-0-8-0-5-7---------------------------|

2:30
e--------------------------------------------|
B--------------------------------------------|
G--------------------------------------------|
D-0-0-0-0-0-0--0-0--0-0-0-0-0-0--0-0---------|
A-0-0-0-0-0-0--0-0--0-0-0-0-0-0--0-0---------|
D-0-0-0-0-6-6~-6-6~-0-0-0-0-6-6~-6-6~--------|

2:34
Lead
e-8h10p8------------------8h10p8---------------------------|
B--------10h11p10h11-------------10h11p10h11---------------|
G--------------------11~---------------------10~--9-9h10~--|
D----------------------------------------------------------|
A----------------------------------------------------------|
D----------------------------------------------------------|

2:34
Rhythm
e--------------------------------------------------|
B--5h6p5------------5h6p5--------------------------|
G--------5h7p5h7-----------5h7p5h7-----------------|
D----------------7~----------------7~--5-5h7~------|
A--------------------------------------------------|
D--------------------------------------------------|

2:58
e---------------------------------|
B---------------------------------|
G-7-7-7--7\5-5-5\3-3-3-3-3--------|
D-7-7-7--7\5-5-5\3-3-3-3-3--------|
A-5-5-5--5\3-3-3\1-1-1-1-1--------|
D---------------------------------|

3:02 - Repeat 2x
e----------------------------------------------------|
B----------------------------------------------------|
G---------------------------3-3--3-3-3--3-3-3--3-3-3-|
D-0-0--0-0-0--0-3-3--3-3-3--3-3--3-3-3--3-3-3--3-3-3-|
A-0-0--0-0-0--0-3-3--3-3-3--1-1--1-1-1--1-1-1--1-1-1-|
D-0-0--0-0-0--0-3-3--3-3-3---------------------------|

3:12
Rhythm - Repeat as necessary
e---------------------------------|
B---------------------------------|
G---------------------------------|
D-0--0-0-0--0-0-0--0-0-0----------|
A-0--0-0-0--0-0-0--0-0-0----------|
D-0--0-0-0--0-0-0--0-0-0----------|

3:12
Lead (possibly octaves) - again, repeat as necessary
e----------------------------------|
B----------------------------------|
G-10--10-10-10--10-10-10--10-10-10-|
D----------------------------------|
A----------------------------------|
D----------------------------------|

3:19
e---------------------------------|
B---------------------------------|
G-3~-3~-3~-3~---------------------|
D-3~-3~-3~-3~-333-2---------------|
A-1~-1~-1~-1~-333-2---------------|
D-------------333-2---------------|
             |-----|
            
Submit corrections

comments powered by Disqus
↑ Back to top | A Wilhelm Scream Tabs for The King Is Dead. Lyrics for acoustic guitar and electric guitar. Tablatures and chords are parodies/interpretations of the original songs. You may use it for private study, scholarship, research or language learning purposes only