» » »

A Wilhelm Scream, Our Ghosts Bass tabs (ver.1)

Artists:  A B C D E F G H I J K L M N O P Q R S T U V W X Y Z # 

Our Ghosts Bass tabs (ver.1)

A Wilhelm Scream Tabs
 Rating:
4.2/5 (5 votes)
Our Ghosts lessons Tabs too difficult? Try these video lessons and learn fast
1
                Artist  :A Wilhelm Scream
Album   :Career Suicide
Track   :Our Ghosts
Tunning :Drop D


(C# minor)

I did my best, it's 95% correct.
Hes a fast player lol.

-Intro 1/A-                                       
G|---------------------------------------------------4~4--------------|
D|-------------------------------21--------------2~7~-----------------|
A|-4-444-4~4~4\--2-222-2~-----2-2--2-4-444-4~4~4---------2-222--------|
D|-----------------------2~2~2-2------------------------------2222222-|

-Intro 1/B                       fast slide(8/9)
G|--------------------------------------6~8~8/9~8~6\-------|
D|-4--6~-7~676--------4~76464---------9~------------97676--|
A|--44--4-----764~--4~-------76-4~6~7~-------------------9-|
D|----------------4~---------------------------------------|

-Intro 2/B-
G--4--6~-8~8~69~9~6--8~-9~9~811~11~------------------------------|
D---44--4----------77--7-----------\11~9~7~6~--------------------|
A--------------------------------------------9~------------------|
D----------------------------------------------9~9/11~9~7~6~2~4~-|

-Verse 1-
G|----------------|-----------------------------|
D|----------------|-----------------------------|
A|-44-2-4-----2~4-|---------777-766666h7~722222-|
D|----------------|-777-666---------------------|

G|------------------------------------------------------------------|
D|------------------------------64--------------------------44~4----|
A|-----------------------------4--6-44~444~466~677~722~222~2----22~-|
D|-22~222~222~222~244~444~444~4-------------------------------------|

G|---------------------------------------------------------------------------------------|
D|--------------------------66676--777666------------------------------------------------|
A|-----------------------777-----76------777-------------4246467642-0000000/121212121212-|
D|-4444444-6666666-777666-------------------7776-7-677979--------------------------------|


G|--------------------------------------------------------|
D|--------------------------------------------------------|
A|-444444-444444-444444-444444-000000-000000-22222-333333-|
D|--------------------------------------------------------|

G|-------------------------------------------------------------|
D|------46----467-76464------64------222----222----444---------|
A|-44467--4447---------76-444--74-000----000----222------------|
D|----------------------------------------------------4446664\-|

G|--------------------------------------------------|
D|--------------------------------------------------|
A|-------------4444477777-2222222---4444-----6666---|
D|-13\44444444--------------------44----44-66----66-|

G|-------------------------------------------------|
D|-----------66676--777666-------------------------|
A|--------777-----76------777-------------42464676-|
D|-777666--------------------7776-7-677979---------|

G|-------------------------------------------------------4~4---------------|
D|------------2~7~77~----------------21--------------2~7~------------------|
A|-4-444-4~4~4-------2-222-2~-----2-2--2-4-444-4~4~4---------2-222\--------|
D|---------------------------2~2~2-2-------------------------------2222222-|

G------------------------------------------------|
D------------------------------------------------|
A-4/--2-4/-2-4/-2-4/-244444-244444-244444-244444-|
D------------------------------------------------|
            
Submit corrections

comments powered by Disqus
↑ Back to top | A Wilhelm Scream Bass for Our Ghosts. Lyrics for acoustic guitar and electric guitar. 1 Tablatures and chords are parodies/interpretations of the original songs. You may use it for private study, scholarship, research or language learning purposes only