» » »

Mute Print Tabs (ver.2)

Artists:  A B C D E F G H I J K L M N O P Q R S T U V W X Y Z # 

Mute Print Tabs (ver.2)

A Wilhelm Scream
Rating:
0/5 (0 votes)

Hard to play? Try these video lessons and learn fast.
                Track: Mute Print
Released: 2004
Label: Nitro Records

Key:
|---| ~ this is a section which is palm muted
  h   ~ hammer on
  ~   ~ let note ring
  p   ~ pull off
  /   ~ slide from the note before the slash to the note after it unless theres no number to slide
        to, in which case just slide down the neck from the first number..
  ^   ~ bend


0:10
e-------------------------------|
B-------------------------------|
G-2-2-2-2-2-2-2-2-2-2-2-2-2-2-2-|
D-2-2-2-2-2-2-2-2-2-2-2-2-2-2-2-|
A-0-0-0-0-0-0-0-0-0-0-0-0-0-0-0-|
D-------------------------------|

0:14
e-----------------------------------------------------|
B-----------------------------------------------------|
G10-10-10-10-10-10-10-10-10-10--7-7-7-7-7-7-7-7-7-7-7-|
D10-10-10-10-10-10-10-10-10-10--7-7-7-7-7-7-7-7-7-7-7-|
A-8--8--8--8--8--8--8--8--8--8--5-5-5-5-5-5-5-5-5-5-5-|
D-----------------------------------------------------|

0:19
e---------------------------------------------------|
B---------------------------------------------------|
G-----------------------5-5-5-2-2-2-2-2-2-2-2-2-2-2-|
D-3-3-3-3-3-3-3-3-3-3-x-5-5-5-2-2-2-2-2-2-2-2-2-2-2-|
A-3-3-3-3-3-3-3-3-3-3-x-3-3-3-0-0-0-0-0-0-0-0-0-0-0-|
D-3-3-3-3-3-3-3-3-3-3-x-----------------------------|

0:24
e--------------------------|
B--------------------------|
G--------------------------|
D-3-3-3-3-3-3-3-3-3-3-2222-|
A-3-3-3-3-3-3-3-3-3-3-2222-|
D-3-3-3-3-3-3-3-3-3-3-2222-|
                     |----|
Rhythm
0:26
e---------------------------------------------------------------|
B---------------------------------------------------------------|
G---9-------7--------9---9-10-9---14-12h14p12-------------------|
D-7---7-7-7---7-10-7---7----------------------15-14-12-14-15----|
A------------------------------------------------------------14-|
D---------------------------------------------------------------|

Lead
0:26
e--------------------------------12------------------------|
B---10-----8--------8-----8-10------12h13p12-10-8---8-10---|
G-9----9-9---9-10-9---9-9------9------------------9------7-|
D----------------------------------------------------------|
A----------------------------------------------------------|
D----------------------------------------------------------|

Rhythm
0:30
e----------------------------------------------------------------------|
B----------------------------------------------------------------------|
G----------12h14p12----------12h14p12----------12h14p12--------12^-12--|
D-14-15-17----------14-15-17----------14-15-17----------15^-15^--------|
A----------------------------------------------------------------------|
D----------------------------------------------------------------------|

Lead
0:30
e---------------------------------------------------|
B-------5h6p5-------5h6p5-------5h6p5---------5^-5--|
G-5-7-9-------5-7-9-------5-7-9-------7^--7^--------|
D---------------------------------------------------|
A---------------------------------------------------|
D---------------------------------------------------|

Lead
0:35
e---------------------------------------------|
B---------------------------------------------|
G-----------------9---9-----------------9---9-|
D-7-7-7-7-7-7-7-7---7---7-7-7-7-7-7-7-7---7---|
A---------------------------------------------|
D---------------------------------------------|

Rhythm
0:35
e----------------------------------------------------------------|
B----------------------------------------------------------------|
G-------------------------12----12-----------------------12---12-|
D-10-10-10-10-10-10-10-10----10----10--10-10-10-10-10-10---10----|
A----------------------------------------------------------------|
D----------------------------------------------------------------|

0:40
e-----------------------------------------------------|
B-----------------------------------------------------|
G10-10-10-10-10-10-10-10-10-10--7-7-7-7-7-7-7-7-7-7-7-|
D10-10-10-10-10-10-10-10-10-10--7-7-7-7-7-7-7-7-7-7-7-|
A-8--8--8--8--8--8--8--8--8--8--5-5-5-5-5-5-5-5-5-5-5-|
D-----------------------------------------------------|

0:45
e---------------------------------------------------|
B---------------------------------------------------|
G-----------------------5-5-5-2-2-2-2-2-2-2-2-2-2-2-|
D-3-3-3-3-3-3-3-3-3-3-x-5-5-5-2-2-2-2-2-2-2-2-2-2-2-|
A-3-3-3-3-3-3-3-3-3-3-x-3-3-3-0-0-0-0-0-0-0-0-0-0-0-|
D-3-3-3-3-3-3-3-3-3-3-x-----------------------------|

0:47
Lead
e-------------------------|
B-------------------------|
G-------------------------|
D-------------------------|
A-8-8-8-8-7-7-7-7-5-5-5-5-|
D-------------------------|

0:47
Rhythm
e-----------------------------|
B-10-10-10-10-8-8-8-8-6-6-6-6-|
G-----------------------------|
D-----------------------------|
A-----------------------------|
D-----------------------------|

0:49
e-----------------------------------|
B-----------------------------------|
G-----------------------------------|
D-3-3-3-3-3-3-3-3-3-3-2222-0~-0000--|
A-3-3-3-3-3-3-3-3-3-3-2222-0~-0000--|
D-3-3-3-3-3-3-3-3-3-3-2222-0~-0000--|
                     |----|  |------|
0:54 Repeat 3x
e------------------------------|
B------------------------------|
G----------------7--7-7--7-7-7-|
D-3--3-3--3-3-3--7--7-7--7-7-7-|
A-3--3-3--3-3-3--5--5-5--5-5-5-|
D-3--3-3--3-3-3----------------|

1:00
e----------------------------------------------------------|
B----------------------------------------------------------|
G----------------------------------------------------------|
D-5--5-5--5-5-5--5--5-5--5-5-5-x-3-x-3-x-3~-3-3--3-3-3-3-3-|
A-5--5-5--5-5-5--5--5-5--5-5-5-x-3-x-3-x-3~-3-3--3-3-3-3-3-|
D-5--5-5--5-5-5--5--5-5--5-5-5-x-3-x-3-x-3~-3-3--3-3-3-3-3-|

1:05
Rhythm
e---------------------------------------------------------------------------------|
B---------------------------------------------------------------------------------|
G-----------------------5-5-5-2-2-2-2-2-2-2-10-10-10-12-12-7----------------------|
D-3-3-3-3-3-3-3-3-3-3-3-5-5-5-2-2-2-2-2-2-2------------------3-3-3-3-3-3-3-3-2222-|
A-3-3-3-3-3-3-3-3-3-3-3-3-3-3-0-0-0-0-0-0-0------------------3-3-3-3-3-3-3-3-2222-|
D-3-3-3-3-3-3-3-3-3-3-3--------------------------------------3-3-3-3-3-3-3-3-2222-|
 |--------------------------------------------------------------------------------|


1:05
Lead
e-------------------------------------------5-5-5-7-7-7-3-------------------------|
B---------------------------------------------------------------------------------|
G-----------------------5-5-5-2-2-2-2-2-2-2---------------------------------------|
D-3-3-3-3-3-3-3-3-3-3-3-5-5-5-2-2-2-2-2-2-2---------------3-3-3-3-3-3-3-3-2222----|
A-3-3-3-3-3-3-3-3-3-3-3-3-3-3-0-0-0-0-0-0-0---------------3-3-3-3-3-3-3-3-2222----|
D-3-3-3-3-3-3-3-3-3-3-3-----------------------------------3-3-3-3-3-3-3-3-2222----|
 |--------------------------------------------------------------------------------|
            
Hard to play? Try these video lessons and learn fast. | Correct




comments powered by Disqus
↑ Back to top | Tablatures and chords are parodies/interpretations of the original songs. You may use it for private study, scholarship, research or language learning purposes only