>
 >
Kursk

Kursk Guitar Tabs

A Wilhelm Scream - Kursk chords, tabs, tablatures, lyrics

Guitar lessons | Add/correct | Request | Top 50 tabs Artists:  A B C D E F G H I J K L M N O P Q R S T U V W X Y Z 0-9

Kursk Guitar Tabs – A Wilhelm Scream

CD, Sheet music, Poster

Do you like Kursk? Share with your friends now
Tabs
Track: Kursk

Key:
|---| ~ this is a section which is palm muted
  h   ~ hammer on
  ~   ~ let note ring
  p   ~ pull off
  /   ~ slide from the note before the slash to the note after it

the introductory 4 seconds are harmonics but i cant work them out as im not using my amp
so this will have to suffice for one of the guitars.

0:00
e-14-----------14----14-------14-----------14----14-------------|
B----15-15--15----15----15-15----15-15--15----15----15-15-------|
G---------------------------------------------------------------|
D---------------------------------------------------------------|
A---------------------------------------------------------------|
D---------------------------------------------------------------|

0:04
e-------------------------------------------|
B-------------------------------------------|
G-------------------------------------------|
D-2--3-0-2-3--2--3-0-2-3--------------------|
A-------------------------------------------|
D-------------------------------------------|

0:09
Repeat 3x
e-------5-7-5------------5-7----------------|
B-5-7-8-------8-7--5-7-8--------------------|
G-------------------------------------------|
D-------------------------------------------|
A-------------------------------------------|
D-------------------------------------------|

0:15
e-------5-7-5----------------------------------------------|
B-5-7-8-------8-7--5-7-5-----------------------------------|
G------------------------7-9-7-4-5-7-5-4-2-4-5-4-----------|
D----------------------------------------------------------|
A----------------------------------------------------------|
D----------------------------------------------------------|

00:22
e---5-7---5-7--5------5-7---5-7--5-----------5-7-5------------5-7--|
B-8-----8--------8--8-----8--------8--5-7-8--------8-7--5-7-8------|
G------------------------------------------------------------------|
D------------------------------------------------------------------|
A------------------------------------------------------------------|
D------------------------------------------------------------------|

00:29
e-------------------------------------------|
B-------------------------------------------|
G-7h9-4h5-2h4-0h2-0h1-----------------------|
D-------------------------------------------|
A-------------------------------------------|
D-------------------------------------------|

0:31
Repeat 2x
e-------0--------------0----------0--------|
B---------0--------------0----------0------|
G-5-555-----5-555--------------------------|
D-5-555-----5-555-2-222----2-222-----------|
A-3-333-----3-333-2-222----2-222-----------|
D-----------------2-222----2-222-----------|
 |-----|   |-----------|  |----------------|


0:40
(the 3rd fret powerchord frequency on A isnt correct, but listen to it for how many times to
play it between 0:41 and 0:43)
e------------------------------------------------------------------------|
B------------------------------------------------------------------------|
G--------2-2--2--5-5--5--5-5--5--5-5--------------------------7~--4~--9~-|
D-5-5--5-2-2--2--5-5--5--5-5--5--5-5--2-2---2-2---2-2---2-2--------------|
A-5-5--5-0-0--0--3-3--3--3-3--3--3-3--2-2---2-2---2-2---2-2--------------|
D-5-5--5------------------------------2-2---2-2---2-2---2-2--------------|
                                     |-----------------------------------|

0:50
Lead guitar:
e----------------------------------------------------------------------------|
B----------------------------------------------------------------------------|
G-12-12--12-12-12-11-11-11--11-11-11--11-12-12--12-12-12--12-12-12--12-12-12-|
D----------------------------------------------------------------------------|
A----------------------------------------------------------------------------|
D----------------------------------------------------------------------------|

0:50
Rhythm
e------------------------------------------------------|
B------------------------------------------------------|
G-2-2--2-2-2--2-4-4--4-4-4--4-5-5--5-5-5--5-5-5--5-5-5-|
D-2-2--2-2-2--2-4-4--4-4-4--4-5-5--5-5-5--5-5-5--5-5-5-|
A-0-0--0-0-0--0-2-2--2-2-2--2-3-3--3-3-3--3-3-3--3-3-3-|
D------------------------------------------------------|

0:55
Repeat 4x muted, then 4x normal
e--------------------------------------------|
B--------------------------------------------|
G---------5-5-5-5----------------------------|
D-2-2-2-2-5-5-5-5-5-5-5-5-7-7-7-7------------|
A-2-2-2-2-3-3-3-3-5-5-5-5-7-7-7-7------------|
D-2-2-2-2---------5-5-5-5-7-7-7-7------------|

1:12
e--------------------------------------------|
B--------------------------------------------|
G-5-5-5-5-5-5-5-5-5-5-5----------------------|
D-5-5-5-5-5-5-5-5 5-5-5-x-x-2-2-2-2-2-2-2-2--|
A-3-3-3-3-3-3-3-3-3-3-3-x-x-2-2-2-2-2-2-2-2--|
D-----------------------x-x-2-2-2-2-2-2-2-2--|

1:16
e--------------------------------------------|
B--------------------------------------------|
G-x-x-5-5-5-5-5-5----------------------------|
D-x-x-5-5-5-5-5-5-x-x-2-x-x-2-x-x-2-x-x-2----|
A-x-x-3-3-3-3-3-3-x-x-2-x-x-2-x-x-2-x-x-2----|
D-----------------x-x-2-x-x-2-x-x-2-x-x-2----|

1:21
e------------------------------------------------------------------------------|
B------------------------------------------------------------------------------|
G-5-5-5-5-5-5-5-5-5-5-5--------------------2-2-2-2-2-2-2-5-5-5-5-5-5-5-5-5-----|
D-5-5-5-5-5-5-5-5 5-5-5--2-2-2-2-2-2-2-2---2-2-2-2-2-2-2-5-5-5-5-5-5-5-5-5-----|
A-3-3-3-3-3-3-3-3-3-3-3--2-2-2-2-2-2-2-2---0-0-0-0-0-0-0-3-3-3-3-3-3-3-3-3-----|
D------------------------2-2-2-2-2-2-2-2---------------------------------------|
                        |------------------------------------------------------|
1:30
e-------------------------------------------|
B-------------------------------------------|
G-4h5p4----4h5p4----4h5p4------4h5p4--------|
D-------5~-------5~-------5/7--------5~-----|
A-------------------------------------------|
D-------------------------------------------|

1:38
e----------------------------------------------------------------------------------------|
B----------------------------------------------------------------------------------------|
G-7-7-7-7-7-7-7-7-7-7/4-7-7-7-7-7-7-7-7-7-7/4-7-7-7-7-7-7-7-7-7-7/4--7h9-4h5-2h4-0h2-0h1-|
D----------------------------------------------------------------------------------------|
A----------------------------------------------------------------------------------------|
D----------------------------------------------------------------------------------------|

1:47
Repeat 2x
e-------0--------------0----------0--------|
B---------0--------------0----------0------|
G-5-555-----5-555--------------------------|
D-5-555-----5-555-2-222----2-222-----------|
A-3-333-----3-333-2-222----2-222-----------|
D-----------------2-222----2-222-----------|
 |-----|   |-----------|  |----------------|


1:56
(the 3rd fret powerchord frequency on A isnt correct, but listen to it for how many times to
play it between 0:41 and 0:43)
e------------------------------------------------------------------------|
B------------------------------------------------------------------------|
G--------2-2--2--5-5--5--5-5--5--5-5--------------------------7~--4~--9~-|
D-5-5--5-2-2--2--5-5--5--5-5--5--5-5--2-2---2-2---2-2---2-2--------------|
A-5-5--5-0-0--0--3-3--3--3-3--3--3-3--2-2---2-2---2-2---2-2--------------|
D-5-5--5------------------------------2-2---2-2---2-2---2-2--------------|

2:06
Lead guitar:
e----------------------------------------------------------------------------|
B----------------------------------------------------------------------------|
G-12-12--12-12-12-11-11-11--11-11-11--11-12-12--12-12-12--12-12-12--12-12-12-|
D----------------------------------------------------------------------------|
A----------------------------------------------------------------------------|
D----------------------------------------------------------------------------|

2:06
Rhythm
e------------------------------------------------------|
B------------------------------------------------------|
G-2-2--2-2-2--2-4-4--4-4-4--4-5-5--5-5-5--5-5-5--5-5-5-|
D-2-2--2-2-2--2-4-4--4-4-4--4-5-5--5-5-5--5-5-5--5-5-5-|
A-0-0--0-0-0--0-2-2--2-2-2--2-3-3--3-3-3--3-3-3--3-3-3-|
D------------------------------------------------------|

2:11
Repeat 4x muted, then 4x normal
e--------------------------------------------|
B--------------------------------------------|
G---------5-5-5-5----------------------------|
D-2-2-2-2-5-5-5-5-5-5-5-5-7-7-7-7------------|
A-2-2-2-2-3-3-3-3-5-5-5-5-7-7-7-7------------|
D-2-2-2-2---------5-5-5-5-7-7-7-7------------|

Rhythm
2:28
e--------------------------------------------|
B--------------------------------------------|
G-5-5-5-5-5-5-5-5-5-5-5----------------------|
D-5-5-5-5-5-5-5-5 5-5-5-x-x-2-2-2-2-2-2-2-2--|
A-3-3-3-3-3-3-3-3-3-3-3-x-x-2-2-2-2-2-2-2-2--|
D-----------------------x-x-2-2-2-2-2-2-2-2--|

2:32
e--------------------------------------------|
B--------------------------------------------|
G-x-x-5-5-5-5-5-5----------------------------|
D-x-x-5-5-5-5-5-5-x-x-2-x-x-2-x-x-2-x-x-2----|
A-x-x-3-3-3-3-3-3-x-x-2-x-x-2-x-x-2-x-x-2----|
D-----------------x-x-2-x-x-2-x-x-2-x-x-2----|

2:37
e------------------------------------------------------------------------------|
B------------------------------------------------------------------------------|
G-5-5-5-5-5-5-5-5-5-5-5--------------------2-2-2-2-2-2-2-5-5-5-5-5-5-5-5-5-----|
D-5-5-5-5-5-5-5-5 5-5-5--2-2-2-2-2-2-2-2---2-2-2-2-2-2-2-5-5-5-5-5-5-5-5-5-----|
A-3-3-3-3-3-3-3-3-3-3-3--2-2-2-2-2-2-2-2---0-0-0-0-0-0-0-3-3-3-3-3-3-3-3-3-----|
D------------------------2-2-2-2-2-2-2-2---------------------------------------|
                        |------------------------------------------------------|
LEAD
2:28
Repeat 6x
e-------5-7-5------------5-7----------------|
B-5-7-8-------8-7--5-7-8--------------------|
G-------------------------------------------|
D-------------------------------------------|
A-------------------------------------------|
D-------------------------------------------|

2:45
Repeat 33x
e-5-----------------------------------------|
B---8-7-5-----------------------------------|
G-------------------------------------------|
D-------------------------------------------|
A-------------------------------------------|
D-------------------------------------------|

3:05
e----------------------------------------------------------------------------|
B----------------------------------------------------------------------------|
G-----------------------------------5-5-5-5-5-5-5-5-5-7-7-7-7-7-7-7-7--------|
D-2-2-2-2-2-2-2-2-5-5-5-5-5-5-5-5-5-5-5-5-5-5-5-5-5-5-7-7-7-7-7-7-7-7--------|
A-2-2-2-2-2-2-2-2-5-5-5-5-5-5-5-5-5-3-3-3-3-3-3-3-3-3-5-5-5-5-5-5-5-5--------|
D-2-2-2-2-2-2-2-2-5-5-5-5-5-5-5-5-5------------------------------------------|

3:14
e-----------------------------------------------------------------------|
B-----------------------------------------------------------------------|
G-----------------------------------5-5-5-5-5-5-5-5-5-2-2-2-2-2-2-2-2---|
D-2-2-2-2-2-2-2-2-5-5-5-5-5-5-5-5-5-5-5-5-5-5-5-5-5-5-2-2-2-2-2-2-2-2---|
A-2-2-2-2-2-2-2-2-5-5-5-5-5-5-5-5-5-3-3-3-3-3-3-3-3-3-0-0-0-0-0-0-0-0---|
D-2-2-2-2-2-2-2-2-5-5-5-5-5-5-5-5-5-------------------------------------|
 |----------------------------------------------------------------------|

3:23
Rhythm - Muted
Repeat 2x
e-------------------------------|
B-------------------------------|
G-------------------------------|
D-2-2---2-2---2-2---------------|
A-2-2---2-2---2-2-3p2p0---------|
D-2-2---2-2---2-2-------5p4p2---|

3:27
e----------------------------------------------------|
B----------------------------------------------------|
G----------------------------------------------------|
D-2-2-----------2-2-------------------3p2p0-------2--|
A-2-2-3p2p0-----2-2-3p2p0-----3p2-----------3p2p0-2--|
D-2-2-------5p4p2-2-------5p4-----5p4-------------2--|

3:23
Lead
Repeat 2x
e-------5-7-5------------5-7----------------|
B-5-7-8-------8-7--5-7-8--------------------|
G-------------------------------------------|
D-------------------------------------------|
A-------------------------------------------|
D-------------------------------------------|

3:27
Repeat 4x
On 4th repeat, only play bracketed part on 4th repeat
e-------5-7-5-------------------------------|
B-5-7-8-------8-7--(5-7-5)------------------|
G-------------------------------------------|
D-------------------------------------------|
A-------------------------------------------|
D-------------------------------------------|





Comments


Popular A Wilhelm Scream tabs & chords
The King Is Dead Bass Tabs
Brand New Me, Same Shitty You Tabs
Congratulations Tabs
Killing It Tabs
Mute Print 1 Tabs
Rip Tabs
Rip 1 Tabs
Rip 2 Tabs
Route 40 One Six Tabs
William Blake Overdrive Tabs


Song lyrics



↑ Back to top | Tablatures and chords are parodies/interpretations of the original songs. You may use it for private study, scholarship, research or language learning purposes only
© 2014 AZChords.com Contact us | Privacy policy | DMCA | Add/correct tabs | Request tabs | Top 50 tabs