» » »

A Wilhelm Scream, Killing It Bass tabs (ver.1)

Artists:  A B C D E F G H I J K L M N O P Q R S T U V W X Y Z # 

Killing It Bass tabs (ver.1)

A Wilhelm Scream Tabs
Rating:
4/5 (1 vote)
Killing It lessons Tabs too difficult? Try these video lessons and learn fast
                A Wilhelm Scream
"Killing It"



:09
G------------------------------------------|
D------------------------------------------|
A------------------------------------------|
D-4-4-4-2-4-4-4-2-4-4-4--7-6-0---------0---|

:13
G------------------------------------------|
D------------------------------------------|
A------------------------------------------|
D-4-4-4-2-4-4-4-2-4-4-4--7-6-0---------0---|

:18
G---------------------------|
D---------------------------|
A-------------4444---4-4----|
D-4-6-7-0-0-----------------|

:20
G--------------------------------------------------------------------|
D--------------------------------------------------------------------|
A-4--------------0-0-0---0--------------0-0-0---0------------0-0-0---|
D---4--4-4--2-4------------4--4-4--2-4------------4--4-4-2-4---------|

:26
G-----------------------------------------------------|
D-----------------------------------------------------|
A------2-4-5--5-5-5--5-5-5--5-5-5--5-5-5--------------|
D-2-0-------------------------------------4~-------0--|

:33
G--------------------------------------------|
D--------------------------------------------|
A-5-5-5-5-5-5-5-5------4--4-4-4-----2--2-2-2-|
D------------------4-x----------2-x----------|

:37
G---------------------------|
D---------------------------|
A---------------------------|
D-0---0---0~---0--0--0--0~--|

:42
G------------------------------------------|
D------------------------------------------|
A------------------------------------------|
D-4-4-4-2-4-4-4-2-4-4-4--7-6-0---------0---|

:46
G------------------------------------------|
D------------------------------------------|
A------------------------------------------|
D-4-4-4-2-4-4-4-2-4-4-4--7-6-0---------0---|

:51
G-------------------------------|-------------------------------------|
D-------------------------------|-------------------------------------|
A-------------------------------|-------------------------------------|
D-0--0-0--0-0-0--4--4-4--4-4-4--|-0--0-0--0-0-0--4-4-4-4-2-2-2-2--0~--|

:58
G------------|
D------------|
A--4444-4-4--|
D------------|

:59
G--------------------------------------------------------------------|
D--------------------------------------------------------------------|
A-4--------------0-0-0---0--------------0-0-0---0------------0-0-0---|
D---4--4-4--2-4------------4--4-4--2-4------------4--4-4-2-4---------|

1:06
G-----------------------------------------------------|
D-----------------------------------------------------|
A------2-4-5--5-5-5--5-5-5--5-5-5--5-5-5--------------|
D-2-0-------------------------------------4~-------0--|

1:12
G-----------------------------------|
D-----------------------------------|
A-5-5-5-5-5-5-5-5----4-4-4---2-2-2--|
D------------------4-------2--------|

!:17
G---------------|
D---------------|
A---------------|
D-0-0~---0-0~---|

1:21
G------------------------------------------|
D------------------------------------------|
A------------------------------------------|
D-4-4-4-2-4-4-4-2-4-4-4--7-6-0---------0---|

1:25
G------------------------------------------|
D------------------------------------------|
A------------------------------------------|
D-4-4-4-2-4-4-4-2-4-4-4--7-6-0---------0---|

1:29
G-------------------------------|-------------------------------------|
D-------------------------------|-------------------------------------|
A-------------------------------|-------------------------------------|
D-0--0-0--0-0-0--4--4-4--4-4-4--|-0--0-0--0-0-0--4-4-4-4-2-2-2-2--0~--|

1:37
G--------------------------------------------------------|
D--0-0-0-11-0--0-0-0-9-0--0-0-0----0--0-0-0--------------|
A-------------------------------12----------11--11~------|
D--------------------------------------------------------|

1:46
Repeat
x2
G-----------------------------------------------------------------|-----|
D-----------------------------------------------------------------|-----|
A-----------------------------------------------------------------|-----|
D-0-0-0-0-0-0-0-0-2-2-2-2-2-2-2-2-0-0-0-0-0-0-0-0-4-4-4-4-2-2-2-2-|-0~~-|


| ~  Hold Note
| /  slide up
|   slide down
| h  hammer-on
| p  pull-off
| +  harmonic
| x  Mute note
            

comments powered by Disqus
↑ Back to top | A Wilhelm Scream Bass for Killing It. Lyrics for acoustic guitar and electric guitar. Tablatures and chords are parodies/interpretations of the original songs. You may use it for private study, scholarship, research or language learning purposes only